Ukulele Tabs for Mad World

(/) Slide Up  (\) Slide Down  (h) Hammer On  (p) Pull Off  (b) Bend (r) Release (v) Vibrato (x) Muted

Tabs for Song : 

Into
A|--------7--------------------------0-----------0--------7-----------3--5--5--
E|---7/8-----7--8--5--7---3\2------------------------7/8-----8--5--7--------2--
C|-----------------------------2-----------2--------------------------------2--
G|--------------------------------------------------------------------------2--

Chorus
A|--0-----0--3--3-----0--7--7-----7-----3-----3--5--5-----5-----2-----2--5--5-----5--3--2--0--0-----0--3--
E|--0--------0-----------0-----------0-----0-----3-----------------3-----2--------------------0--------0--
C|--0--------0-----------0-----0-----------------2-----------2-----------2--------------------0--------0--
G|--2--2-----0-----2-----0-----------------------0-----0-----------------2-----2--------------2--2-----0--

A|--3-----0--7--7-----7-----3-----3--5--5-----5-----2-----2--5--5-----5-----5--3--2--0-----0--3--
E|-----------0-----------0-----0-----3-----------------3-----2-----------2-----------0--------0--
C|-----------0-----0-----------------2-----------2-----------2-----------------------0--------0--
G|-----2-----0-----------------------0-----0-----------------2-----2-----------------2--2-----0--

A|--3-----0--7--7-----7-----3-----3--5--5-----5-----2-----2--5--5-----5-----5--3--2--0--
E|-----------0-----------0-----0-----3-----------------3-----2-----------2-----------0--
C|-----------0-----0-----------------2-----------2-----------2-----------------------0--
G|-----2-----0-----------------------0-----0-----------------2-----2-----------------2--
Chorus
A|-----0--3--3--7--7--9--5--5--9--9--5--0--
E|--------0-----------5--5-----5-----5--0--
C|--------0-----------6--6-----6-----6--0--
G|--2-----0-----------5--5-----5-----5--2--

A|-----0--3--3--7--7--9--5-----5--9--9--5--5--0--
E|--------0-----------5-----------5-----5-----0--
C|--------0-----------6-----------6-----6-----0--
G|--2-----0-----------5-----5-----5-----5-----2--

A|-----0--3--3--7--7--9--5--5--9--9--5--5--0--
E|--------0-----------5--5-----5-----5-----0--
C|--------0-----------6--6-----6-----6-----0--
G|--2-----0-----------5--5-----5-----5-----2--

A|-----0--3--3--7--7--9--5-----5--9--9--5--5--0--
E|--------0-----------5-----------5-----5-----0--
C|--------0-----------6-----------6-----6-----0--
G|--2-----0-----------5-----5-----5-----5-----2--

A|--3-----3--0-----0--0--0--0-----0-----3-----3--3--5-----5--5--
E|--0-----0--2-----2--2--2--2-----2-----0-----0--0--2-----2--2--
C|--0-----0--2-----2--2--2--2-----2-----0-----0--0--2-----2--2--
G|--0-----0--2-----2--2--2--2-----2-----0-----0--0--2-----2--2--

Paste any tab in acousterr's tab maker and we'll play it !!!
Now supports capo and sound effects for vibrato/pull-off/hammer/bends/mutes etc !!! Checkout help section
tabs and chords, guitar tabs, music transcription, music technology, deep learning, music information retrieval, transcribe into tabs & chords, chordify, music renditions, songsterr, reverbnation, tabulature, bollywood chords, ultimate guitar, yousician, guitar lessons, acoustic guitar, electric guitar, guitar tuner, 911 tabs