Guitar Tabs for Mad World

(/) Slide Up  (\) Slide Down  (h) Hammer On  (p) Pull Off  (b) Bend (r) Release (v) Vibrato (x) Muted

Mad World

Intro
E|-----------------------------------------------------------------
B|-----------------------------------------------------------------
G|--------------------------------------------------------12/13-10-
D|--10-12-8--10----8--------------------10-10h12--8/10-------------
A|--------------11----10-11-8--------------------------------------
E|-----------------------------------------------------------------

Verse
E|--------------------------------------------------------------------------
B|--------------------------------------------------------------------------
G|--------------------------------------------------------------------------
D|--------------------10-10----10----8--8-----8-----8--8-----8--------------
A|--8--8--11-11-8--8--------------11-------------10----------------11-10-8--
E|--------------------------------------------------------------------------

Chorus
E|-----------------------------------------------
B|-----------------------------------------------
G|-----------------------------------------------
D|--------------10-10-12-8-----8--12-12-8--8-----
A|--8--8--11-11-------------------------------8--
E|-----------------------------------------------
tabs and chords, guitar tabs, music contests, music covers, songsterr, reverbnation, renditions, tabulature, bollywood chords, ultimate guitar, yousician, guitar lessons, torrins, fender, gibson, acoustic guitar, electric guitar, youtube covers, gootar, guitar tuner, A-Z tabs, 911 tabs