Bass Tabs for Lupytes Boso Tab

(/) Slide Up  (\) Slide Down  (h) Hammer On  (p) Pull Off  (b) Bend (r) Release (v) Vibrato (x) Muted

Tabs for Song : 
BPM : 200

   Aš          -        d?l tav?s            -    lupytes        -      padažiau         -       lupytes         -       padažiau         -     pomido    -    r?    -    pa   -  da    -  že
G|--------------------------------------------------------------------------------------------------------------------------------------------------------------------------------------------------
D|--------------------------------------------------------------------------------------------------------------------------------------------------------------------------------------------------
A|--------------------------------------------------------------------------------------------------------------------------------------------------2--2--2--2--2--2--2--2--2--2--2--2--2--2--2--2--
E|--0--0--0--0--0--0--0--0--4--4--4--4--4--4--4--4--5--5--5--5--5--5--5--5--0--0--0--0--0--0--0--0--5--5--5--5--5--5--5--5--0--0--0--0--0--0--0--0--------------------------------------------------

...negaila         -      to l?pdažio      -      kurs maximoj        -  taip   -   brangiai kai  - na vo       -     kai - navo
G|--------------------------------------------------------------------------------------------------------------------------------------------------
D|--------------7-----------------------7-----------------------7-----------------------------------------------------------------------------------
A|--------------------------------------------------------------------------------------------------------------------------2--2--2--2--2--2--2--2--
E|--5-----------------------5-----------------------5-----------------------5-----------------------0--0--0--0--0--0--0--0--------------------------

Paste any tab in acousterr's tab maker and we'll play it !!!
Now supports capo and sound effects for vibrato/pull-off/hammer/bends/mutes etc !!! Checkout help section
tabs and chords, guitar tabs, music transcription, music technology, deep learning, music information retrieval, transcribe into tabs & chords, chordify, music renditions, songsterr, reverbnation, tabulature, bollywood chords, ultimate guitar, yousician, guitar lessons, acoustic guitar, electric guitar, guitar tuner, 911 tabs