Guitar Tabs for Ludovico Einaudi - Una Mattina

(/) Slide Up  (\) Slide Down  (h) Hammer On  (p) Pull Off  (b) Bend (r) Release (v) Vibrato (x) Muted

Tabs for Song : 
BPM : 200
capo op 5

Song lyrics here 
E|--------------2--------0--------0--------0--------0--------2-----------0--------0--------0--
B|---------0h3--------0--------0--------0--------0--------0-----0-----0--------0--------0-----
G|-----0--------------------------------------------------------------------------------------
D|--4--------------2--------2--------2--------2--------2-----------2--------2--------2--------
A|--------------------------------------------------------------------------------------------
E|--------------------------------------------------------------------------------------------

Song lyrics here 
E|--------------2--------0--------0--------0--------0--------0-----
B|---------0h3--------0--------0--------0--------0--------0-----0--
G|-----0-----------------------------------------------------------
D|--4-----------------------2-----------------2--------------------
A|-----------------3-----------------3-----------------3-----------
E|-----------------------------------------------------------------

Use manual mode to free up cursor. Paste any tab in acousterr tab maker and we'll play it !!!
C|--------0--------0--------0--
B|-----0--------0--------0-----
G|-----------------------------
D|-----------4-----------------
A|--5-----------------5--------
E|-----------------------------
tabs and chords, guitar tabs, music transcription, music technology, deep learning, music information retrieval, transcribe into tabs & chords, chordify, music renditions, songsterr, reverbnation, tabulature, bollywood chords, ultimate guitar, yousician, guitar lessons, acoustic guitar, electric guitar, guitar tuner, 911 tabs