Ukulele Tabs for Lucky By Jason Mraz Ft. Colbie Caillat: Uke 2

(/) Slide Up  (\) Slide Down  (h) Hammer On  (p) Pull Off  (b) Bend (r) Release (v) Vibrato (x) Muted

Lucky- Jason Mraz ft. Colbie Caillat- Uke 2 (Colbie Caillat)

Uke 1: DO YOU HEAR ME TALKING TO YOU ACROSS THE WATER ACROSS THE DEEP BLUE OCEAN
UNDER THE OPEN SKY OH MY BABY IM TRYING

Boy I hear you In my dreams, I feel you whisper across the sea I keep you with me In my heart
A|--3--2--3--7--------7--5--3-----3--5--3--5--8-----------8--7--5-----5--7--5--7--2-----7--5--3--
E|-----------------------------------------------------------------------------------------------
C|-----------------------------------------------------------------------------------------------
G|-----------------0--------------------------------0--0-----------------------------------------

You make it easier when life gets hard-- Lucky I'm in love with my best friend
A|--5--7----5--7---3--3--0-----7--5--0-----3--5--7--2--0-----------------
E|--------------------------3-----------------------------3--1--0--------
C|-----------------------------------------------------------------2-----
G|-----------------------------------------------------------------------

Lucky to have been where I have been, lucky to be coming home again
A|--2--3--5--2--0-----------------3--5--7--5-----7--5--3--2--------
E|-----------------3--1--3--0--------------------------------------
C|-----------------------------------------------------------------
G|--------------------------2-----------------0--------------------

OOOoooo OOOo OOOO oooo OOOooo OOOooo ooooooooOOOOOOOo They don't know how long it takes (IT TAKES)
A|--7-----5--7-----5--7-----5--7--10-7--5-----3--2--------8--7--8--7--7--5--7--x--x-----
E|-----------------------------------------------------------------------------x--x-----
C|-----------------------------------------------------------------------------x--x-----
G|-----------------------------------------------------------------------------x--x-----

Waiting for a love like this Every time we say good bye (goodbye) I wish we had one more kiss
A|--7--7--5--5--7--5--3-----8--7--8--7--7--5--7--x--x-----5--7--10-5--7--5--3--
E|-----------------------------------------------x--x--------------------------
C|-----------------------------------------------x--x--------------------------
G|-----------------------------------------------x--x--------------------------

I'll wait for you I promise you I wii--ii--lll: Iiii'm, lucky I'm in love with my best friend
A|--5--7--5--3--10-7--5--3--3--5-----7-----8--------10-7--7-----3--5--7--2--0-----------------
E|-----------------------------------------------------------------------------3--1--0--------
C|--------------------------------------------------------------------------------------2-----
G|-----------------------------------------------0--------------------------------------------

Lucky to have been where I have been, lucky to be coming home again-- lucky we're in love in every way
A|--2--3--5--2--0-----------------3--5--7--5-----7--5--3--2-----3--5--7--2--0-----------------
E|-----------------3--1--3--0--------------------------------------------------3--1--0--------
C|--------------------------------------------------------------------------------------2-----
G|--------------------------2-----------------0-----------------------------------------------

Lucky to have stayed where we have stayed, lucky to be coming home someday
A|--2--3--5--2--0-----------------3--5--7--5-----7--5--3--2-----------------
E|-----------------3--1--3--0-----------------------------------------------
C|--------------------------------------------------------------------------
G|--------------------------2-----------------0-----------------------------

Uke 1: AND SO I'M SAILING THROUGH THE SEA

To an island, where we'll meet YOULL HEAR THE MUSIC FILL THE AIR ILL PUT A floow-wer IN YOUR HAIR
A|--------0--7-----7--2--3--2--x--x--x--x--x--x--x--x--x--x--x--x--x--x--x--7-----3-----x--x--x--
E|-----------------------------x--x--x--x--x--x--x--x--x--x--x--x--x--x--x--------------x--x--x--
C|-----------------------------x--x--x--x--x--x--x--x--x--x--x--x--x--x--x--------------x--x--x--
G|--0--0-----------------------x--x--x--x--x--x--x--x--x--x--x--x--x--x--x--------------x--x--x--

Though the breezes, through the trees, move so pretty, you're all I see, As the world keeps, 
A|--3--2--3--7-----------5--3-----5--3--5--8--------------7--5-----7--5--7--2-----
E|--------------------------------------------------------------------------------
C|--------------------------------------------------------------------------------
G|-----------------0--0--------------------------0--0--0--------------------------

spinning round, you hold me, right here right now-- lucky I'm in love with my best friend
A|--7--5--3-----5--7------5\3--3-----0-----7--5--0-----3--5--7--2--0-----------------
E|--------------------------------------------------------------------3--1--0--------
C|-----------------------------------------------------------------------------2-----
G|--------------------------------------0--------------------------------------------

Lucky to have been where I have been, lucky to be coming home again-- lucky we're in love in every way
A|--2--3--5--2--0-----------------3--5--7--5-----7--5--3--2-----3--5--7--2--0-----------------
E|-----------------3--1--3--0--------------------------------------------------3--1--0--------
C|--------------------------------------------------------------------------------------2-----
G|--------------------------2-----------------0-----------------------------------------------

Lucky to have stayed where we have stayed, lucky to be coming home some day
A|--2--3--5--2--0-----------------3--5--7--5-----7--5--3--2-----------
E|-----------------3--1--3--0-----------------------------------------
C|--------------------------------------------------------------------
G|--------------------------2-----------------0-----------------------

OOOO ooo OOOo ooo OOO  ooo OOOO ooo OOOO oo OOOO
A|--7-----5--7-----5--7-----5--7--10-7--5-----3--2-----x--x-----
E|-----------------------------------------------------x--x-----
C|-----------------------------------------------------x--x-----
G|-----------------------------------------------------x--x-----

OOOO oo OOO oo OOOO oo OOO oo OOO ooo OOO oo OOOO 
A|--7-----5--7-----5--7-----5--7--10-7--5-----3--2-----8--------10----8--7--
E|--------------------------------------------------------------------------
C|--------------------------------------------------------------------------
G|--------------------------------------------------------------------------


Uke 2: Colbie Caillat
tabs and chords, guitar tabs, music transcription, music technology, deep learning, music information retrieval, transcribe into tabs & chords, chordify, music renditions, songsterr, reverbnation, tabulature, bollywood chords, ultimate guitar, yousician, guitar lessons, acoustic guitar, electric guitar, guitar tuner, 911 tabs