Ukulele Tabs for Lucky By Jason Mraz Ft. Colbie Caillat: Uke 1

(/) Slide Up  (\) Slide Down  (h) Hammer On  (p) Pull Off  (b) Bend (r) Release (v) Vibrato (x) Muted

Lucky- Jason Mraz ft. Colbie Caillat- Uke 1 (Jason Mraz)

do you hear me- talking to you- across the water- across the deep- blue- ocean
A|-----------------3--3--2--0-----------------3-----0--3--0-----------------7--
E|--------0--3-----------------------0--0--1-----------------3-----1-----0-----
C|--2--2--------------------------0--------------------------------------------
G|-----------------------------------------------------------------------------

under the open sky oh my baby im trying 
A|--8--7--5--5--3--0-----3--0-----0--------------------------------------------
E|-----------------------------------3--0--0-----------------------------------
C|--------------------------------------------2--------------------------------
G|-----------------------------------------------------------------------------

UKE 2: BOY I HEAR YOU IN MY DREAMS I FEEL YOU WHISPER ACCROSS THE SEA
I KEEP YOU WITH ME IN MY HEART YOU MAKE IT EASIER WHEN LIFE GETS HARD

Lucky I'm in love with my best friend, lucky to have been where I have been, lukcy to be coming home again
A|--0--2--3--10-8--7--5--3--2--------0--2--10-8--7--5--7--0-----0--2--3--0--5--3--2--0--------------------
E|--------------------------------3-----------------------0-----------------------------3-----------------
C|--------------------------------------------------------0-----------------------------------------------
G|--------------------------------------------------------------------------------------------------------

OOOooooh, Oooooh, oooooh, ooooh,oooh-UKE 2: THEY DONT uke 1:They don't know how long it takes
A|--3-----2--3-----2--3-----2--3--5--3--2-----0-----x--x--0--3--2--------0-----
E|-----------------------------------------------3--x--x-----------0--0-----3--
C|--------------------------------------------------x--x-----------------------
G|--------------------------------------------------x--x-----------------------

Waiting for a love like this (EV-RY) every time we say goodbye I wish we had one more kiss
A|-----0--2--2--3--2--0--x--x--0--3--2--------0-----------2--0--2--3--2--0--
E|--3--------------------x--x-----------0--0-----3-----3--------------------
C|-----------------------x--x-----------------------------------------------
G|-----------------------x--x-----------------------------------------------
 
I'll wait for you I promise you I wi-ii-iilllll, IIi'm            lucky I'm in love with my best friend
A|--2--3--2--0--3--2-----------0--2-----3-----5--------10-7--7-----0--2--3--10-8--7--5--3--2-----
E|--------------------0--0-----------------------------------------------------------------------
C|-----------------------------------------------------------------------------------------------
G|--------------------------------------------------0--------------------------------------------

Lucky to have been where I have been, lucky to be coming home again--- lucky we're in love in every way
A|-----0--2--10-8--7--5--7--0-----0--2--3--0--5--3--2--0-----------0--2--3--10-8--7--5--3--2-----
E|--3-----------------------0-----------------------------3--------------------------------------
C|--------------------------0--------------------------------------------------------------------
G|-----------------------------------------------------------------------------------------------

Lucky to have stayed where we have stayed, lucky to be coming home some day, And so I'm sailing
A|-----0--2--10-8--7--5--7--0-----0--2--3--0--5--3--2--0-----------------------------
E|--3-----------------------0-----------------------------3-----------0-----0--3-----
C|--------------------------0--------------------------------------2-----2-----------
G|-----------------------------------------------------------------------------------

Through the sea to an island where we'll meet youll hear the music fill the air Ill put a flower in ur hair
A|-----2--0--------------3-----3-----0--------------------7-----2--5--3-----2--3--2--3-----0--------------
E|--0-----------0--0--1-----------3-----3--------0-----0--------------------------------------3--3--0-----
C|--------------------------------------------2-----2--------------------------------------------------2--
G|--------------------------------------------------------------------------------------------------------

Uke 2: THOUGH THE BREEZES THROUGH THE TREES MOVE SO PRETTY YOURE ALL I SEE 
AS THE WORLD KEEPS SPINNING ROUN YOU HOLD ME RIGHT HERE RIGHT NOW

Lucky I'm in love with my best friend, lucky to have been where I have been, lucky to be coming home again
A|--0--2--3--10-8--7--5--3--2--------0--2--10-8--7--5--7--0-----0--2--3--0--5--3--2--0--------
E|--------------------------------3-----------------------0-----------------------------3-----
C|--------------------------------------------------------0-----------------------------------
G|--------------------------------------------------------------------------------------------

Lucky we're in love in every way lucky to have stayed where we have stayed, lucky to be coming home someday
A|--0--2--3--10-8--7--5--3--2--------0--2--10-8--7--5--7--0-----0--2--3--0--5--3--2--0-----------------
E|--------------------------------3-----------------------0-----------------------------3--------------
C|--------------------------------------------------------0--------------------------------------------
G|-----------------------------------------------------------------------------------------------------

OoooooOooo OOOOooo OOOOOO ooooooo OOOOOO ooooooo 
A|--3-----2--3-----2--3-----2--3--5--3--2-----0--------0-----------
E|-----------------------------------------------3--------3--------
C|-----------------------------------------------------------------
G|-----------------------------------------------------------------

OOOooo OOOO ooooo OOOO oooo OOOOOO ooo OOOO
A|--3-----2--3-----2--3-----2--3--5--3--2-----0-----------5--------7-----5--3--
E|-----------------------------------------------3-----------------------------
C|-----------------------------------------------------------------------------
G|-----------------------------------------------------------------------------


Uke 1: Jason Mraz's part
tabs and chords, guitar tabs, music contests, music covers, songsterr, reverbnation, renditions, tabulature, bollywood chords, ultimate guitar, yousician, guitar lessons, torrins, fender, gibson, acoustic guitar, electric guitar, youtube covers, gootar, guitar tuner, A-Z tabs, 911 tabs