Guitar Tabs for Lucid Dreams

(/) Slide Up  (\) Slide Down  (h) Hammer On  (p) Pull Off  (b) Bend (r) Release (v) Vibrato (x) Muted

Tabs for Song : 
BPM : 270

Song lyrics here 
F|--------------------------------------------------------------------------------------------------------------------
C|-----------------------------------------------------------9--------10----------------12-10-------------------------
G|--------6--------2--------4-----------------------6--8--9-----8--9-----11----------11-------9--8--------------------
D|-----6--------2--------4-----------------6--7--9--------------------------11----11----------------7--------------6--
A|--4--------0--------2--------4--6-----7--------------------------------------11----------------------6--------6-----
F|-----------------------------------7--------------------------------------------------------------------5--4--------

F|--------------------------------------------------------------------------------------------------------------11----
C|--------10----9-----------------------------------2--------------5--------------------------10-9--10-7-----10----9--
G|--8--9-----11----8--------4--------------1--2--------4--------6-----6-----4--------4--6-----------------9-----------
D|--------------------7--6-----4-----------------2-----------6--------------------4--------7--------------------------
A|--------------------------------2--------------------4--4-----------2-----0--2--------------7-----------------------
F|-----------------------------------2--0--0--------0-----------------------------------------------------------------

F|--------------------------------------------------------------------------------------------------------------------
C|--------------------------5--------------------------------------------------------------------------5-----7--------
G|-----------------------4-----6--8--------------------------------13-------------------------------4-----6-----8-----
D|--7--------4--4--4--4--------------7--------9--------11-------14----11----9--7-----6--4-----------------------------
A|-----6-----------------------------------9--------11-------14----------11-------7--------4-----4-----------------9--
F|--------7--7--7--7--------------------7--------9--------12----------------------------------2-----------4-----------

F|--------------11-12----9-----9-----------------------7-----9-----11-12----------------------------------------------
C|--12-14-10-------------------10----------------5--7--------------------12-------------------------------------------
G|-----------9--------9-----6-----------------4-----------4-----4-----------11-11-14-------9-----------------------11-
D|-----------------------------7-----------4-----------------------------------13-13-13-9--11-14----------16-13-------
A|--9-----------------------------7-----4--------------------------------------11----11-9--14-14----16-18-------11----
F|-----------------------------------5--------------------------------------------12-9--7--12-14-14-------------------

F|--------------------------9--------------------------------------------------5-----4-----2-----------4--2-----------
C|-----------12----10----------7--------------------------------------------------2-----2--------------------2-----2--
G|-----13-------11----8--9--------8--------------------------6--------------------------------------4-----------1-----
D|--------14-------------------------9--------------7-----6-----4--------------------2-----------4-----2--------------
A|--9-----------------------------------9--------7-----6-----------4-----------------------2--2--------------------0--
F|-----------------------------------------9--7-----------------------4--2--5--2--------------------------------------

F|--------------2--0--------------------------------------------7-----------------------------------------------------
C|-----------2--------0--------------------------------------------------------------------5--5--5--------------------
G|--2-----4--------------1--------------------------------------------11-13-11----------------------2--1--------------
D|-----4--------------------1--------------------------------------6-----------9--------------------------1-----------
A|-----------------------------0--------------------------2--4--4--7--9-----------9--7--6--4--2--0-----------2--------
F|--------------------------------0-----0--0-----0-----2-----------------11-------------------------0--0--0--0--2--0--

Song lyrics here 
F|--
C|--
G|--
D|--
A|--
F|--

Use manual mode to free up cursor. Paste any tab in acousterr tab maker and we'll play it !!!
tabs and chords, guitar tabs, music transcription, music technology, deep learning, music information retrieval, transcribe into tabs & chords, chordify, music renditions, songsterr, reverbnation, tabulature, bollywood chords, ultimate guitar, yousician, guitar lessons, acoustic guitar, electric guitar, guitar tuner, 911 tabs