Guitar Tabs for Lucid Dreams

(/) Slide Up  (\) Slide Down  (h) Hammer On  (p) Pull Off  (b) Bend (r) Release (v) Vibrato (x) Muted

Tabs for Song : Capo on 2nd fret



Song lyrics here
E|-----------------------------------------------------------------------------------------------------------------3--
B|--8--------8--7--------7--5--------5--5-----4-----8--------8--7--------7--5--------5--5-----4--------------5--------
G|--------------------------------------5-----4-----------------------------------------5-----4-----------5-----5-----
D|--------9-----------7-----------5-----5-----4-----------9-----------7-----------5-----5-----4--------5--------------
A|-----7-----------5-----------3--------3-----2--------7-----------5-----------3--------3-----2-----3-----------------
E|--------------------------------------------------------------------------------------------------------------------

E|--------------------------------2-----------------------------------12-
B|-----5-----------------------------4--5--3-----------------------12----
G|--------5--------3-----------4--------------5--------4--4-----12-------
D|--5---------3\4-----4-----------------------------4--------------------
A|-----------------------5--2-----------3--------2-----------------------
E|------------2\3--------------------------------------------0-----------

REPEAT 2X
E|-----------------------------------------------------------------------------------------------------------------
B|-----0--0-----------3--1--0--0--------0--0---------1h3--1--0-----0-----------0--0-----------3--1--0--0--------0--
G|-----------0--0-----------------2-----------0--0--------------------2--------------0--0-----------------2--------
D|-----------------------------------------------------------------------------------------0-----------------------
A|-----------------------------------3---------------3h---------5--------------------------------------------3-----
E|--0--------------0--------------------------------------------------------0--------------------------------------

E|-----------------------------------------------------------------------------------------------------------------
B|---0h1--0--0--------0---0h1--0-----0-----------------------------------------------------------------------------
G|--------------2-----------------------2-----0--0--0--0--------2--0--0--0--0--0-----------------------0--2--0--0--
D|--------------------------------------------2-----------------------------------7-----5--5--5--5--5--------------
A|-----------------3--------------5-----------3-----------5--5-----------------------7-----------------------------
E|-----------------------------------------------------------------------------------------------------3-----------

E|-----------------------------------------------------------------------------------
B|-----------------------------------------------------------------------------------
G|--0--0--2-----------0--0--0--2--0--0--0--0--0------------------------0h2--0-----0--
D|-----------------2-----------------------------7-----5--5--5--5--5-----------------
A|--------------3--------------5--------------------7--------------------------------
E|---------------------------------------------------------------------3h------3-----

E|-----------------------------------------------------------------------------
B|--0-----0---------1h3--1--0-----------------0---0h1--0--0--0--0--------------
G|-----0-----2--0---0h---------0--2--2--0-----------------------------0--9--8--
D|-----------4--------------------4-----------------------4--------2-----10-9--
A|-----------5------3h------------5-----------------------5--------3-----10-9--
E|--0--------------------------------------0-----------------------------8--7--

E|--------------------------------------------------------------------------------
B|--0-----0-----------0-----------------------0--0---0h1--0--------0--0--0--------
G|-----0-----2--0--0--2--0--0--0---0h2--2--0--------------------------------12----
D|--2--------3--------------------------------2--------------4--------------12----
A|--3--------5--------------------------------3-----------------5--------------12-
E|--------------------0--------3-----------------------------------------0--------

E|-----------------------------------------------------------------------------
B|--0-----0---------1h3--1--0-----------------0---0h1--0--0--0--0-----0--------
G|-----0-----2--0---0h---------0--2--2--0--------------------------------9--8--
D|-----------4--------------------4-----------------------4--------2-----10-9--
A|-----------5------3h------------5-----------------------5--------3-----10-9--
E|--0--------------------------------------0-----------------------------8--7--

E|--------------------------------------------------------------------------------------
B|--0-----0--------------------------------------------0---0h1--0--------0--0--0--------
G|-----0-----2--0--0--0--0--0--0--0---0h2--2--0--------------------------------------5--
D|--2--------4--------2-----------------------------2--------------4-----------------7--
A|--3--------5-----------------------------------3--------------------5-----------------
E|--------------------0--------3--------------------------------------------------0-----
REPEAT x2
E|--------------------------------
B|--------------------------------
G|--------------------------------
D|--9-----9-----7--5--12-10-9--7--
A|--10-10----5--------10----------
E|--------------------8--------7--

E|-----------------------------------------------------------------------------------
B|--0-----0-----------------------------------------0---0h1--0--------0--0--0--------
G|-----0-----2--0--0--0--0--0--0---0h2--2--0--------------------------------------5--
D|--2--------4--------2--------------------------2--------------4-----------------7--
A|--3--------5--------------------------------3--------------------5-----------------
E|--------------------0--------3-----------------------------------------------0-----

E|-----------------------------------------------------------------------
B|-----0--0-----------3--1--0--0--------0--0---------1h3--1--0-----0-----
G|-----------0--0-----------------2-----------0--0--------------------2--
D|-----------------0-----------------------------------------------------
A|-----------------------------------3---------------3h---------5--------
E|--0--------------------------------------------------------------------

E|-----------------------------------------------------------
B|-----0--0-----------3--1--0--0--------0---0h1--0-----0-----
G|-----------0--0-----------------2-----------------------2--
D|-----------------0-----------------------------------------
A|--------------------------------------------------5--------
E|--0--------------------------------3-----------------------

E|-----------------------------------------------------------------------------
B|-----------------------------------------------------------------------------
G|--0--0--0--0-----2--0--0--0--0--0-----------------------0--2--0--0--0--0--2--
D|--2--------------------------------7-----5--5--5--5--5-----------------------
A|--3-----------5-----------------------7--------------------------------------
E|--------------------------------------------------------3--------------------

E|--------------------------------------------------------------------------
B|--------------------------------------------------------------------------
G|--------0--0--0-----2--0--0--0--0--0------------------------0h2--0-----0--
D|-----2--------------------------------7-----5--5--5--5--5-----------------
A|--3--------------5-----------------------7--------------------------------
E|------------------------------------------------------------3h------3-----
REPEAT x2
E|--------------------------------------------------
B|--8--------8--7--------7--5--------5--5-----4-----
G|--------------------------------------5-----4-----
D|--------9-----------7-----------5-----5-----4-----
A|-----7-----------5-----------3--------3-----2-----
E|--------------------------------------------------

E|-----------------3--------------------------------2-----------------------------------
B|-----------5-----------5-----------------------------4--5--3-----------------------12-
G|--------5-----5-----------5--------3-----------4--------------5--------4--4-----12----
D|-----5--------------5---------3\4-----4-----------------------------4--------12-------
A|--3--------------------------------------5--2-----------3--------2--------------------
E|------------------------------2\3--------------------------------------------0--------



Paste any tab in acousterr's tab maker and we'll play it !!!
Now supports capo and sound effects for vibrato/pull-off/hammer/bends/mutes etc !!! Checkout help section
tabs and chords, guitar tabs, music transcription, music technology, deep learning, music information retrieval, transcribe into tabs & chords, chordify, music renditions, songsterr, reverbnation, tabulature, bollywood chords, ultimate guitar, yousician, guitar lessons, acoustic guitar, electric guitar, guitar tuner, 911 tabs