Guitar Tabs for Lovesong

(/) Slide Up  (\) Slide Down  (h) Hammer On  (p) Pull Off  (b) Bend (r) Release (v) Vibrato (x) Muted

Tabs & Chords
BPM : 125.0
Check Track 2 for Chord Positions 

    C     Cm                   A#       G#                   G              C     Cm    A#    
E|--------------------------------------------------------------------------------------------
B|--------3-----4-----4-----------------------3-----4-----------0-----------------------------
G|-----------------------3--------3--------5-----------------0--------5-----0-----0--------3--
D|-----------------------------3--------6-----------------------------------------------3-----
A|--3-----------------------------------------------------------------------------------------
E|--------------------------------------------------------------------------------------------

       G#             G                 C              A#                   G#          G     
E|--------------------------------------------------------------------------------------------
B|-----------3--------------0--------------4--3--------3--------4-----------------------------
G|--------5--------------0--------5-----5--------5--0--------5--------5-----5-----------0-----
D|-----6--------------0-----------------------------------------------------------6--------0--
A|--------------------------------------------------------------------------------------------
E|--------------4-----------------------------------------------------------------------------

                   Cm          A#                G#                         G                 
E|--------------------------------------------------------------------------------------------
B|-----0--------------4--3--------3--------3-----4-----------------------------------0--------
G|--0--------5-----5-----------0--------5--------------------------5-----3--0-----0--------5--
D|-----------------------------------------------------6-----6-----------------0--------------
A|--------------------------3-----------------------------------------------------------------
E|--------------------------------------------------------------------------------------------

       C     Cm             A#             Fm    G#                G                 C        
E|--------------------------------------------------------------------------------------------
B|-----------4--------------3--------4-----------------------------------0-----------------4--
G|-----0-----------5--0--0--------5--------5--------------------------0--------5-----0--5-----
D|-----------------------------------------------6--6-----6--6-----0--------------------------
A|--------3-----------------------------------------------------------------------------------
E|--------------------------------------------------------------------------------------------

             A#             G#                            G                    G#             
E|--------------------------------------------------------------------------------------------
B|--3--------3--------3-----4--4--4--4-----------------------------0--------------------3--3--
G|-----5--0--------5-----------------------5-----5-----3--0-----0--------5--------------------
D|-----------------------------------------------------------0-----------------6-----6--------
A|--------------------------------------------------------------------------------------------
E|--------------------------------------------------------------------------------------------

             F              A#          C     Cm          A#             G#                F  
E|-----------------0--------------------------------------------------------------------------
B|--4--------6--------4-----3-----------------3-----4-----4--3--------------------3--4-----6--
G|--------3-----------------------3-----0--5-----------------------5--------5-----------------
D|-----6-----------------------------------------------------------------6--------------------
A|--------------------------------------------------------------------------------------------
E|--------------------------------------------------------------------------------------------

                   C  Cm             A#             G#                   F                    C  
E|--------------------------------------------------------------------------3--------------------
B|-----4-----------------3-----4-----4--3-----------------------3--4--------------6--------------
G|-----------5-----0--5-----------------------5-----------5--------------5--------------5-----0--
D|-----------------------------------------------------6-----------------------------------------
A|-----------------------------------------------------------------------------------------------
E|--------------------------------------------------4--------------------------------------------

    Cm             A#             G#                   G                    Cm             A# 
E|--------------------3-----------------------------------------------------------3-----------
B|-----3-----4-----4-----------------------3-----4-----0--6-----4-----0-----4--------4--------
G|--5-----------------------5--------5-----------------------------------------------------3--
D|--------------------------------6-----------------------------------------------------------
A|--------------------------------------------------------------------------------------------
E|--------------------------------------------------------------------------------------------

                   G#                      G     Cm                A#                G#       
E|--------------------------------------------------------------------------------------------
B|-----------------4--4--------4--------------0--------4-----4-----------------------------4--
G|--------3--3-----------------------------------3-----------------------3-----3--------------
D|-----3--------------------6--------------------------------------3-----------------6--------
A|--------------------------------6--6--------------------------------------------------------
E|-----------------------------------------7--------------------------------------------------

             G           Cm          A#          G#                   G                 Cm       
E|-----------------------------------------------------------------------------------------------
B|-----4-----0-----0-----------4-----------6--------4--4--------4--------0-----0--0-----4-----4--
G|-----------------------0-----------3--------------------------------0--------------------------
D|-----------------------------------------------------------------------------------------------
A|-----------------------------------------------6-----------6-----------------------------------
E|-----------------------------------------------------------------------------------------------

          A#             G#                   G                 Cm          A#    G#    G        
E|--------------------------------------------------------------------------------------------3--
B|--4--------------------4-----------4--4-----------3-----0-----4-----3--4--6-----4--------------
G|--------3--------3--------------------------0-----------------------------------------0--------
D|-----------------------------6-----------------------------------------------------------------
A|-----------------------------------------------------------------------------------------------
E|--------------6--------------------------------------------------------------------------------

       Cm                A#                      G#                G           Cm             
E|-----------------------------------------------------------3--------------------------------
B|-----4-----4-----4--4--------------------------------4-----------0-----0-----4--------------
G|-----------------------------3--------------------------------------------------5-----5--5--
D|--------------------------------------------------------------------------------------------
A|--------------------------------------------------------------------------------------------
E|-----------------------6-----------6-----6-----4--4-----------------------------------------

                   A#       G#                G           Cm                   A#                
E|--------------------------------------------------3--------------------------------------------
B|-----3--4--6-----6--6-----------4-----------------------4-----4--4-----4-----------6--6-----6--
G|--------------------------------------------3--------------------------------------------------
D|--------------------------6-----------6--------------------------------------3-----------------
A|-----------------------------------------------------------------------------------------------
E|-----------------------------------------------------------------------------------------------

             G#                   G                       G#             F              A#    
E|-----3-----------3-----------------3--------------------------------------------------------
B|--6--------4--------------4-----------0--3-----0--------------3--4--------6-----3-----------
G|--------------------------------3-----------------3--------------------3--------------5-----
D|--------------------6-----------------------------------6--------------------------------3--
A|--------------------------------------------------------------------------------------------
E|--------------------------------------------------------------------------------------------

          C  Cm             A#                         G#             F                 Cm    
E|--------------------------------------------------------------------------------------------
B|--------------3-----4-----------6-----4--3-----------------4--------6-----4--------------3--
G|--3-----0--5--------------3--------------------5-----------------3--------------5-----5-----
D|-----------------------------------------------------6--------------------------------------
A|--------------------------------------------------------------------------------------------
E|-----------------------------6--------------------------------------------------------------

             A#                G#                F                    C  Cm          A#          
E|-----------------------------------------------------------------------------------------------
B|-----4-----6-----3--------------------3--4-----6--6--------------------3-----4-----4--3--------
G|-----------------------5--------5-----------------------5-----5-----5-----------------------5--
D|-----------------------------6-----------------------------------------------------------------
A|-----------------------------------------------------------------------------------------------
E|-----------------------------------------------------------------------------------------------

             G#                   G                             C           
E|-----------------------------------------------------------------------3--
B|--------------------3-----4-----------3--4--------------0-----------------
G|-----3--------5--------------------------------3--3-----------0--5--------
D|-----------6--------------------------------------------------------------
A|--------------------------------------------------------------------------
E|--------------------------------3-----------------------------------------

Guitar Tabs for Lovesong






    C     Cm                   A#       G#                   G              C     Cm    A#    
E|--0-----3--------------------1--------4--------------------3--------------0-----3-----1-----
B|--1-----4--------------------3--------4--------------------3--------------1-----4-----3-----
G|--0-----5--------------------3--------5--------------------4--------------0-----5-----3-----
D|--2-----5--------------------3--------6--------------------5--------------2-----5-----3-----
A|--3-----3--------------------1--------6--------------------5--------------3-----3-----1-----
E|--------------------------------------4--------------------3--------------------------------

       G#             G                 C              A#                   G#          G     
E|-----4--------------3-----------------0--------------1--------------------4-----------3-----
B|-----4--------------3-----------------1--------------3--------------------4-----------3-----
G|-----5--------------4-----------------0--------------3--------------------5-----------4-----
D|-----6--------------5-----------------2--------------3--------------------6-----------5-----
A|-----6--------------5-----------------3--------------1--------------------6-----------5-----
E|-----4--------------3-----------------------------------------------------4-----------3-----

                   Cm          A#                G#                         G                 
E|-----------------3-----------1-----------------4--------------------------3-----------------
B|-----------------4-----------3-----------------4--------------------------3-----------------
G|-----------------5-----------3-----------------5--------------------------4-----------------
D|-----------------5-----------3-----------------6--------------------------5-----------------
A|-----------------3-----------1-----------------6--------------------------5-----------------
E|-----------------------------------------------4--------------------------3-----------------

       C     Cm             A#             Fm    G#                G                 C        
E|-----0-----3--------------1--------------1-----4-----------------3-----------------0--------
B|-----1-----4--------------3--------------1-----4-----------------3-----------------1--------
G|-----0-----5--------------3--------------1-----5-----------------4-----------------0--------
D|-----2-----5--------------3--------------3-----6-----------------5-----------------2--------
A|-----3-----3--------------1--------------3-----6-----------------5-----------------3--------
E|-----------------------------------------1-----4-----------------3--------------------------

             A#             G#                            G                    G#             
E|-----------1--------------4-----------------------------3--------------------4--------------
B|-----------3--------------4-----------------------------3--------------------4--------------
G|-----------3--------------5-----------------------------4--------------------5--------------
D|-----------3--------------6-----------------------------5--------------------6--------------
A|-----------1--------------6-----------------------------5--------------------6--------------
E|--------------------------4-----------------------------3--------------------4--------------

             F              A#          C     Cm          A#             G#                F  
E|-----------1--------------1-----------0-----3-----------1--------------4-----------------1--
B|-----------1--------------3-----------1-----4-----------3--------------4-----------------1--
G|-----------2--------------3-----------0-----5-----------3--------------5-----------------2--
D|-----------3--------------3-----------2-----5-----------3--------------6-----------------3--
A|-----------3--------------1-----------3-----3-----------1--------------6-----------------3--
E|-----------1-----------------------------------------------------------4-----------------1--

                   C  Cm             A#             G#                   F                    C  
E|-----------------0--3--------------1--------------4--------------------1--------------------0--
B|-----------------1--4--------------3--------------4--------------------1--------------------1--
G|-----------------0--5--------------3--------------5--------------------2--------------------0--
D|-----------------2--5--------------3--------------6--------------------3--------------------2--
A|-----------------3--3--------------1--------------6--------------------3--------------------3--
E|--------------------------------------------------4--------------------1-----------------------

    Cm             A#             G#                   G                    Cm             A# 
E|--3--------------1--------------4--------------------3--------------------3--------------1--
B|--4--------------3--------------4--------------------3--------------------4--------------3--
G|--5--------------3--------------5--------------------4--------------------5--------------3--
D|--5--------------3--------------6--------------------5--------------------5--------------3--
A|--3--------------1--------------6--------------------5--------------------3--------------1--
E|--------------------------------4--------------------3--------------------------------------

                   G#                      G     Cm                A#                G#       
E|-----------------4-----------------------3-----3-----------------1-----------------4--------
B|-----------------4-----------------------3-----4-----------------3-----------------4--------
G|-----------------5-----------------------4-----5-----------------3-----------------5--------
D|-----------------6-----------------------5-----5-----------------3-----------------6--------
A|-----------------6-----------------------5-----3-----------------1-----------------6--------
E|-----------------4-----------------------3-----------------------------------------4--------

             G           Cm          A#          G#                   G                 Cm       
E|-----------3-----------3-----------1-----------4--------------------3-----------------3--------
B|-----------3-----------4-----------3-----------4--------------------3-----------------4--------
G|-----------4-----------5-----------3-----------5--------------------4-----------------5--------
D|-----------5-----------5-----------3-----------6--------------------5-----------------5--------
A|-----------5-----------3-----------1-----------6--------------------5-----------------3--------
E|-----------3-----------------------------------4--------------------3--------------------------

          A#             G#                   G                 Cm          A#    G#    G        
E|--------1--------------4--------------------3-----------------3-----------1-----4-----3--------
B|--------3--------------4--------------------3-----------------4-----------3-----4-----3--------
G|--------3--------------5--------------------4-----------------5-----------3-----5-----4--------
D|--------3--------------6--------------------5-----------------5-----------3-----6-----5--------
A|--------1--------------6--------------------5-----------------3-----------1-----6-----5--------
E|-----------------------4--------------------3-----------------------------------4-----3--------

       Cm                A#                      G#                G           Cm             
E|-----3-----------------1-----------------------4-----------------3-----------3--------------
B|-----4-----------------3-----------------------4-----------------3-----------4--------------
G|-----5-----------------3-----------------------5-----------------4-----------5--------------
D|-----5-----------------3-----------------------6-----------------5-----------5--------------
A|-----3-----------------1-----------------------6-----------------5-----------3--------------
E|-----------------------------------------------4-----------------3--------------------------

                   A#       G#                G           Cm                   A#                
E|-----------------1--------4-----------------3-----------3--------------------1-----------------
B|-----------------3--------4-----------------3-----------4--------------------3-----------------
G|-----------------3--------5-----------------4-----------5--------------------3-----------------
D|-----------------3--------6-----------------5-----------5--------------------3-----------------
A|-----------------1--------6-----------------5-----------3--------------------1-----------------
E|--------------------------4-----------------3--------------------------------------------------

             G#                   G                       G#             F              A#    
E|-----------4--------------------3-----------------------4--------------1--------------1-----
B|-----------4--------------------3-----------------------4--------------1--------------3-----
G|-----------5--------------------4-----------------------5--------------2--------------3-----
D|-----------6--------------------5-----------------------6--------------3--------------3-----
A|-----------6--------------------5-----------------------6--------------3--------------1-----
E|-----------4--------------------3-----------------------4--------------1--------------------

          C  Cm             A#                         G#             F                 Cm    
E|--------0--3--------------1--------------------------4--------------1-----------------3-----
B|--------1--4--------------3--------------------------4--------------1-----------------4-----
G|--------0--5--------------3--------------------------5--------------2-----------------5-----
D|--------2--5--------------3--------------------------6--------------3-----------------5-----
A|--------3--3--------------1--------------------------6--------------3-----------------3-----
E|-----------------------------------------------------4--------------1-----------------------

             A#                G#                F                    C  Cm          A#          
E|-----------1-----------------4-----------------1--------------------0--3-----------1-----------
B|-----------3-----------------4-----------------1--------------------1--4-----------3-----------
G|-----------3-----------------5-----------------2--------------------0--5-----------3-----------
D|-----------3-----------------6-----------------3--------------------2--5-----------3-----------
A|-----------1-----------------6-----------------3--------------------3--3-----------1-----------
E|-----------------------------4-----------------1-----------------------------------------------

             G#                   G                             C           
E|-----------4--------------------3-----------------------------0-----------
B|-----------4--------------------3-----------------------------1-----------
G|-----------5--------------------4-----------------------------0-----------
D|-----------6--------------------5-----------------------------2-----------
A|-----------6--------------------5-----------------------------3-----------
E|-----------4--------------------3-----------------------------------------

tabs and chords, guitar tabs, music transcription, music technology, deep learning, music information retrieval, transcribe into tabs & chords, chordify, music renditions, songsterr, reverbnation, tabulature, bollywood chords, ultimate guitar, yousician, guitar lessons, acoustic guitar, electric guitar, guitar tuner, 911 tabs