Guitar Tabs for Loving Born - Terima Kasih

(/) Slide Up  (\) Slide Down  (h) Hammer On  (p) Pull Off  (b) Bend (r) Release (v) Vibrato (x) Muted

Tabs for Song : 

Song lyrics here
E|-----------------------------------------------------------------------------
B|--8--7-----7--8-----------7--8-----8--7-----7--8-----------7--10-8--7--8--10-
G|--------9------------7\9-----------------9------------7\9--------------------
D|-----------------------------------------------------------------------------
A|-----------------------------------------------------------------------------
E|-----------------------------------------------------------------------------

E|--------------------------------------------------------------
B|--7--8--10-10\12----12-10-8--10-8-----7--8--7-----8--7--------
G|--------------------------------------------------------9-----
D|--------------------------------------------------------------
A|--------------------------------------------------------------
E|--------------------------------------------------------------

Solo :
E|--------------------------------------------------------------------------------
B|--8--7-----7--8-----------7--8-----8--7-----7--8-----------7--8--10-8--7--8--10-
G|--------9------------7\9-----------------9------------7\9-----------------------
D|--------------------------------------------------------------------------------
A|--------------------------------------------------------------------------------
E|--------------------------------------------------------------------------------

E|-----------------------------------12----------------------------------------------
B|--7--8--10-12-13----8--7--------------12----------12----------10\12----10p12-10----
G|---------------------------9b9---------------9\11----11-12----------------------11-
D|-----------------------------------------------------------------------------------
A|-----------------------------------------------------------------------------------
E|-----------------------------------------------------------------------------------

E|-----------------------------------------12-14-15-------------------15-
B|--------10-8-----------------------10-------------13-------12-13-15----
G|---7\9--------5------4p-5p4--------9--------------------9--------------
D|-----------------------------7-----------------------------------------
A|-----------------------------------------------------------------------
E|-----------------------------------------------------------------------

E|-----14-15-17----14-15-12-14-------12----------------------------------
B|--17----------------------------15----13-15-12-13-------12----------12-
G|-----------------------------------------------------14----12-14-11----
D|-----------------------------------------------------------------------
A|-----------------------------------------------------------------------
E|-----------------------------------------------------------------------

Paste any tab in acousterr's tab maker and we'll play it !!!
Now supports capo and sound effects for vibrato/pull-off/hammer/bends/mutes etc !!! Checkout help section
tabs and chords, guitar tabs, music transcription, music technology, deep learning, music information retrieval, transcribe into tabs & chords, chordify, music renditions, songsterr, reverbnation, tabulature, bollywood chords, ultimate guitar, yousician, guitar lessons, acoustic guitar, electric guitar, guitar tuner, 911 tabs