Guitar Tabs for Love Yourself

Justin Bieber - Love Yourself 

Intro/Verse
E|-----------------------------------------------------
B|--9--9-----7--7-----5--5-----10-10----9--9-----7--7--
G|--------x--------x--------x--------x--------x--------x--
D|--------x--------x-----------------x------------------
A|--7--7-----6--6-----4--4--x--9--9-----7--7--x---6--6-x-
E|-----------------------------------------------------

Bridge
E|--------x-----x--------x-----x--
B|--------x-----x--------x-----x--
G|--6--6--x--2--x--1--1--x--1--x--2times
D|--6--6--x--2--x--2--2--x--2--x--
A|--4--4--x--0--x--2--2--x--2--x--
E|--------x-----x--0--0--x--0--x--

E|--------x-----x--------x-----x--
B|--------x-----x--------x-----x--
G|--6--6--x--2--x--1--1--x--4--x--
D|--6--6--x--2--x--2--2--x--4--x--
A|--4--4--x--0--x--2--2--x--2--x--
E|--------x-----x--0--0--x-----x--

E|--------x-----x-----------------x--
B|--------x-----x-----------------x--
G|--6--6--x--2--x--4--4--4--4--4--x--
D|--6--6--x--2--x--4--4--4--4--4--x--
A|--4--4--x--0--x--2--2--2--2--2--x--
E|--------x-----x-----------------x--

Chorus
E|-----x-----x-----x-----x--------x-----x-----x--
B|-----x-----x-----x-----x--------x-----x-----x--
G|-----x--4--x--6--x-----x-----1--x-----x--1--x--
D|--2--x--4--x--6--x--2--x-----2--x--2--x--2--x--
A|--2--x--2--x--4--x--2--x-----2--x--2--x--2--x--
E|--0--x-----x-----x--0--x-----0--x--0--x--0--x--

Now supports capo and sound effects for vibrato/pull-off/hammer/bends/mutes etc !!! Checkout help section
tabs and chords, guitar tabs, music transcription, music technology, deep learning, music information retrieval, transcribe into tabs & chords, chordify, music renditions, songsterr, reverbnation, tabulature, bollywood chords, ultimate guitar, yousician, guitar lessons, acoustic guitar, electric guitar, guitar tuner, 911 tabs