Bass Tabs for Audioslave - Be Yourself

Verse & Chorus
G|-----------------------------------------------------------------------------------------------------
D|-----------------------------------------------------------------------------------------------------
A|--2--2--2--2--2--2--0--0--5--5--5--5--5--5---------------------------------------------5/7--7--7--7--
E|--------------------------------------------0--0--3--3--3--3--3--3--0--3--0--0--0--0-----------------

1st Pre-Chorus
G|--------------------------------------------------------------------------------------------------------------
D|--------------------------------------------------------------------------------------------------------------
A|--2--2--2--2--2--2--0--0--5--5--5--5--5--5--------------------------------------------------------------------
E|--------------------------------------------0--0--3--3--3--3--3--3--0--3--0--0--0--0--0--0--0--0--0--0--0--0--

2nd Part Verse - 3rd Time
G|--------------------------------------------------------------------------------------------------
D|--------------------------------------------4--4--5--5--5--5--5--5-----5--------------------------
A|--2--2--2--2--2--2--4--4--5--5--5--5--5--5--------------------------7-----7--7--7--7--7--7--5--5--
E|--------------------------------------------------------------------------------------------------

2nd Pre-Chorus
G|-------------------------------------------------------------------------------
D|-------------------------------------------------------------------------------
A|--2--2--2--2--2--2--0--0--5--5--5--5--5--5-------------------------------------
E|--------------------------------------------0--0--3~~--0--0--0--0--0--0--0--0--

Guitar Solo
G|-----------------------------------------------------------------------------------------------------
D|-----------------------------------------------------------------------------------------------------
A|--2--2--2--2--2--2--4--4--5--5--5--5--5--5---------------------------------------------5/7--7--7--7--
E|--------------------------------------------0--0--3--3--3--3--3--3--0--3--0--0--0--0-----------------

Post Guitar Solo
G|-----------------------------------------------------------------------------------------------------------
D|-----------------------------------------------------------------------------------5-----5--7--5--7---7/9--
A|------------------------------------7h9--7--5------------------------7/9--7--5--7-----7--------------------
E|--3--3--0--3--5--5--3--5--7--7--7--------------3---5/7--5---7/9--7-----------------------------------------

G|-----------------------------------------------------------------
D|--------------5--5--5--5--5--5------7/9--7--7--7------9/12----9--(50x)
A|--9--7--5--7--------------------7-----------------9--------------
E|-----------------------------------------------------------------

Last Chorus
G|-----------------------------------------------------------------------------------------------------
D|-----------------------------------------------------------------------------------------------------
A|--2--2--2--2--2--2--4--4--5--5--5--5--5--5---------------------------------------------5/7--7--7--7--
E|--------------------------------------------0--0--3--3--3--3--3--3--0--3--0--0--0--0-----------------

Last Note ----> G






tabs and chords, guitar tabs, music transcription, music technology, deep learning, music information retrieval, transcribe into tabs & chords, chordify, music renditions, songsterr, reverbnation, tabulature, bollywood chords, ultimate guitar, yousician, guitar lessons, acoustic guitar, electric guitar, guitar tuner, 911 tabs