Bass Tabs for Los Lobos - La Bamba

Los Lobos - La Bamba

Intro
G|-----------------------------------------------
D|--------------------------3--3--2--------------
A|-----0--2--3--------2--5-----------5--3--------
E|--3--------------3--------------------------3--

Verse
G|--------------2--------------------
D|-----2--5--3-----5--0--3--3--2--0--
A|--3--------------------------------
E|-----------------------------------

Bamba Bamba
G|--------------------------------------------------------------------
D|--------------------------------------------------------------------
A|--3--3-----------------------------3--3-----------------------------
E|--------1--1--3--3--3--1--1--3--1--------1--5--3--3--3--1--1--3--1--

Final
G|--------------------------------------------------------------------------
D|-----3--7--5-----5-----3--7--5-----5--------3--5-----5-----3-----5-----5--
A|--3-----------5-----3-----------5-----3--3--------5-----3-----3-----5-----
E|--------------------------------------------------------------------------
tabs and chords, guitar tabs, music transcription, music technology, deep learning, music information retrieval, transcribe into tabs & chords, chordify, music renditions, songsterr, reverbnation, tabulature, bollywood chords, ultimate guitar, yousician, guitar lessons, acoustic guitar, electric guitar, guitar tuner, 911 tabs