Guitar Tabs for La Bamba

E|--------------------------------
B|--------------------------------
G|--------------------0-----2--0--
D|-----------------2-----3--------
A|-----0--2--3--------------------
E|--3-----------------------------

E|--------------------------------------------
B|--------------------------------------------
G|--------------------------------0-----2--0--
D|--------0--3--3--2--0--------2-----3--------
A|-----2-----------------3--------------------
E|--3-----------------------------------------

tabs and chords, guitar tabs, music transcription, music technology, deep learning, music information retrieval, transcribe into tabs & chords, chordify, music renditions, songsterr, reverbnation, tabulature, bollywood chords, ultimate guitar, yousician, guitar lessons, acoustic guitar, electric guitar, guitar tuner, 911 tabs