Bass Tabs for Lion And The Lamb

(/) Slide Up  (\) Slide Down  (h) Hammer On  (p) Pull Off  (b) Bend (r) Release (v) Vibrato (x) Muted

Lion and the Lamb

Verse
G|--------------------------------------
D|--------------------------------------
A|--3--3--5-----------0--0--------------
E|-----------1--------------3--1-----3--

Chorus x2
G|-----------------------
D|-----------------------
A|--3--------------------
E|-----3--5--5--3--1--3--

Bridge
G|--------------
D|--------------
A|--5-----------
E|-----0--1--3--

G|--
D|--
A|--
E|--

G|--
D|--
A|--
E|--

Use manual mode to free up cursor. Paste any tab in acousterr tab maker and we'll play it !!!

tabs and chords, guitar tabs, music transcription, music technology, deep learning, music information retrieval, transcribe into tabs & chords, chordify, music renditions, songsterr, reverbnation, tabulature, bollywood chords, ultimate guitar, yousician, guitar lessons, acoustic guitar, electric guitar, guitar tuner, 911 tabs