Ukulele Tabs for The Lion Sleeps Tonight

The Lion Sleeps Tonight


A|----------------------------------------------------------------------------------------------------------
E|--------0-----0--1--0-----------0--------0-----------------3--0-----0--3--1--0-----------0--------0--------
C|--0--2-----2-----------2--0--2-----2--0-----2--------------------2--------------2--0--2-----2--0-----2--
G|--------------------------------------------------------------------------------------------------------
 in the jungle the mighty jungle the lion sleeps tonight   In the jungle the mighty jungle the lion sleeps tonight 
 
A|--------------------------------------------
E|-----3-----------1--1--3--1--0--------------
C|--0-----------------------------0--0--0--0--
G|--------------------------------------------
   ooo wEEEEEEEEEEEeeEEEEeEee wee a bung ga weh      
tabs and chords, guitar tabs, music contests, music covers, songsterr, reverbnation, renditions, tabulature, bollywood chords, ultimate guitar, yousician, guitar lessons, torrins, fender, gibson, acoustic guitar, electric guitar, youtube covers, gootar, guitar tuner, A-Z tabs, 911 tabs