Guitar Tabs for Likhe Jo Khat Tujhe - Kanyadaan Tabs

(/) Slide Up  (\) Slide Down  (h) Hammer On  (p) Pull Off  (b) Bend (r) Release (v) Vibrato

Tabs for Song : Likhe Jo Khat Tujhe

Likhe jo khat tujhe woh teri yaad mein
E|--------------------------------------------
B|--5--4-----4-----------5--4-----4-----------
G|--------6-----4---4/6--------6-----4---4/6--
D|--------------------------------------------
A|--------------------------------------------
E|--------------------------------------------

Hazaaron rang ke nazaare ban gaye
E|--------------------------------------
B|--------------------------------------
G|--8--6--------------------------------
D|--------9--6--9--7--7--6--------6-----
A|--------------------------9--7-----9--
E|--------------------------------------

Sawera jab huya to phool ban gaye
E|--------------------------------------------
B|--5--4-----4-----------5--4-----4-----------
G|--------6-----4---4/6--------6-----4---4/6--
D|--------------------------------------------
A|--------------------------------------------
E|--------------------------------------------

Jo raat aayi to sitaare ban gaye
E|--------------------------------------
B|--------------------------------------
G|--8--6--------------------------------
D|--------9--6--9--7--7--6--------6-----
A|--------------------------9--7-----9--
E|--------------------------------------

Koyi nagma kahin goonja
E|--------------------------------------
B|--------------------------------------
G|--------------6--6--9--9--8--8--6--6--
D|--6--6--9--9--------------------------
A|--------------------------------------
E|--------------------------------------

Kahan dil mein yeh tu aayi
E|--------------------------------------
B|--------------------------------------
G|--------------6--6--9--9--8--8--6--6--
D|--6--6--9--9--------------------------
A|--------------------------------------
E|--------------------------------------

Kahin chatki kali koyi
E|--------------------------------------
B|--------------------------------------
G|--8--8--8--8--8--8---8/11-11/13-11\9--
D|--------------------------------------
A|--------------------------------------
E|--------------------------------------

Main yeh samjha, tu sharmaayi
E|-----------------------------------------
B|-----------------------------------------
G|--9--9--8---8\6--6-----------8---8\6--6--
D|--------------------9--9--9--------------
A|-----------------------------------------
E|-----------------------------------------

Koyi khushboo kahin bikhri
E|--------------------------------
B|--7--7--7--7--7--7--7--6--9--7--
G|--------------------------------
D|--------------------------------
A|--------------------------------
E|--------------------------------

laga yeh zulf lehraayi
E|-----------------------------------------
B|--9--7-----------------------------------
G|--------9--8--8-----6--8--6--------------
D|-----------------9-----------9--7--6--6--
A|-----------------------------------------
E|-----------------------------------------

Again Repeat Part 1
tabs and chords, guitar tabs, music transcription, music technology, deep learning, music information retrieval, transcribe into tabs & chords, chordify, music renditions, songsterr, reverbnation, tabulature, bollywood chords, ultimate guitar, yousician, guitar lessons, acoustic guitar, electric guitar, guitar tuner, 911 tabs