Guitar Tabs for Likhe Jo Khat Tujhe - Tabs

Tabs for Song : Likhe jo khat tujhe wo teri yad mein 

likhe jo khat tujhe
E|--------------------------
B|--3--2--0--2-----0--------
G|--------------2-----------
D|--------------------------
A|--------------------------
E|--------------------------

wo teri yaad mein
E|--------------------------
B|--3--2--0--2-----0--------
G|--------------2-----------
D|--------------------------
A|--------------------------
E|--------------------------

hazaro rang ke
E|-----------------------
B|--2--0-----------------
G|--------2-----2--0-----
D|-----------4-----------
A|-----------------------
E|-----------------------

nazare ban gaye
E|-----------------------
B|-----------------------
G|--0--------------------
D|-----4--2--0--4--2-----
A|-----------------------
E|-----------------------

sawera jb hua
E|-----------------------
B|--3--2--0--2-----0-----
G|--------------2--------
D|-----------------------
A|-----------------------
E|-----------------------

to phool ban gaye
E|-----------------------
B|--3--2--0--2-----0-----
G|--------------2--------
D|-----------------------
A|-----------------------
E|-----------------------

jo raat ayi to
E|-----------------------
B|--2--0-----------------
G|--------2-----2--0-----
D|-----------4-----------
A|-----------------------
E|-----------------------

sitaare ban gaye
E|--------------------------
B|--------------------------
G|--0-----------------------
D|-----4--2--0--4--2--------
A|--------------------------
E|-------------------------

koi nagma kahi goonja
E|-----------------------------------------
B|-----------0--0-----3--3--2--2--0--0-----
G|--------2--------------------------------
D|--4--4-----------------------------------
A|-----------------------------------------
E|-----------------------------------------

kaha dil ne ye tu ayi
E|-----------------------------------------
B|-----------0--0-----3--3--2--2--0--0-----
G|--------2--------------------------------
D|--4--4-----------------------------------
A|-----------------------------------------
E|-----------------------------------------

kahin chatki kali koi
E|-----------------------------0--0-----------
B|--2--2-----2--2--2-----2--2-----------3-----
G|--------------------------------------------
D|--------------------------------------------
A|--------------------------------------------
E|--------------------------------------------

mein ye samjha tu sharmayi
E|--------------------------------------------------
B|--3--3-----2--2--0-----0--0--------2--2--0--0-----
G|-----------------------------2--2-----------------
D|--------------------------------------------------
A|--------------------------------------------------
E|-------------------------------------------------

koyi khushboo kahi bikhri
E|--0--0-----0--0--0-----0--0-----2--0-----
B|-----------------------------3-----------
G|-----------------------------------------
D|-----------------------------------------
A|-----------------------------------------
E|-----------------------------------------

laga ye zulf lehraayi
E|--2--0--------------------------------
B|--------3--2--0-----2--0--------------
G|-----------------2--------2--0--------
D|--------------------------------4--4--
A|--------------------------------------
E|--------------------------------------
tabs and chords, guitar tabs, music transcription, music technology, deep learning, music information retrieval, transcribe into tabs & chords, chordify, music renditions, songsterr, reverbnation, tabulature, bollywood chords, ultimate guitar, yousician, guitar lessons, acoustic guitar, electric guitar, guitar tuner, 911 tabs