Guitar Tabs for Let It Pass

Tabs for Song : Jakob Ogawa - Let It Pass

Intro / verse
E|--------------------------------------4--------------
B|-----0-----2--------2--------1--------4--------2-----
G|-----1-----1--------1--------1--------4--------2-----
D|-----1-----1--------2--------2--------6--------3-----
A|-----2-----2-----0--------0-----------6-----4--4-----
E|--0-----0--------------------------4--4--------------

Chorus
E|-----2-----------7-----------------7-----------------------7--------------------4--
B|-----2-----------9--------7--------9-----------9-----------9--------7-----------6--
G|-----2-----------8--------8--------7-----------9-----------8--------8-----------4--
D|-----4-----------7--------6--------9-----------7-----------7--------6-----------6--
A|-----4-----------9-----7--7--------7--------9--9-----------9-----7--7-----------4--
E|--2--2--------7--7--------------7-----------------------7--7-----------------4--4--


Chorus 2
E|-----2-----------7--------7--------7-----------------------7--------7-----------4--
B|-----2-----------9--------7--------9-----------9-----------9--------7-----------6--
G|-----2-----------8--------8--------7-----------9-----------8--------8-----------4--
D|-----4-----------7--------9--------9-----------7-----------7--------9-----------6--
A|-----4-----------9-----7--7-----7--7--------9--9-----------9-----7--7-----------4--
E|--2--2--------7--7--------------------------------------7--7-----------------4--4--



tabs and chords, guitar tabs, music transcription, music technology, deep learning, music information retrieval, transcribe into tabs & chords, chordify, music renditions, songsterr, reverbnation, tabulature, bollywood chords, ultimate guitar, yousician, guitar lessons, acoustic guitar, electric guitar, guitar tuner, 911 tabs