Guitar Tabs for Let Her Go - Passenger Intro

(/) Slide Up  (\) Slide Down  (h) Hammer On  (p) Pull Off  (b) Bend (r) Release (v) Vibrato (x) Muted

Tabs for Song : let her go
BPM : 200
capo at 7th fret
play 2 times
    Fmaj7                                              G            Am               G
E|-----0-----------------------------0--------------------0-----------------------0-----------------
B|--3-----3--1-----------1-----------1-----------1-----3-----3--1--------1--------1-----3-----------
G|---------------0h2-----------2-----------2------------------------0h2--------2--------------0-----
D|-----------------------3--------3-----------3--------------0-----------2--------2--------0--------
A|------------------------------------------------------------------0-------0-----------------------
E|---------------1----------1-----------1--------------3--------------------------------3-----------

E|-----0------------------------------3p0-----------------0-----------------------------------------
B|--3-----3--1--------1-----------1---------------1h3-----1-----1-----------1-----1-----------------
G|---------------0h2--------2-----------------0-----------------------2-----------------------------
D|--------0-----------3--------3-----------3--------------------2--------2--------2-----------------
A|-----------------------------------------------------0-----0-----0-----------0--------------------
E|--3------------1-------1------------1-----------3-------------------------------------------------

E|--
B|--
G|--
D|--
A|--
E|--

Song lyrics here 
E|--
B|--
G|--
D|--
A|--
E|--

Song lyrics here 
E|--
B|--
G|--
D|--
A|--
E|--

Use manual mode to free up cursor. Paste any tab in acousterr tab maker and we'll play it !!!
tabs and chords, guitar tabs, music transcription, music technology, deep learning, music information retrieval, transcribe into tabs & chords, chordify, music renditions, songsterr, reverbnation, tabulature, bollywood chords, ultimate guitar, yousician, guitar lessons, acoustic guitar, electric guitar, guitar tuner, 911 tabs