Guitar Tabs for Let Her Go - Passenger Tabs

Tabs for song :Passenger Let Her Go (intro)

[Intro]
E|-----7--------------------------
B|--10----10-8--------8-----10----
G|--------------7--9--------------
D|--------------------------------
A|--------------------------------
E|--------------------------------


E|-----7--------------------7--------
B|--10----10-8--------8--------10----
G|--------------7--9-----------------
D|-----------------------------------
A|-----------------------------------
E|-----------------------------------



E|-----7-----------------------10-------------7-----
B|--10----10-8--------8-----8-----12----8--10-------
G|--------------7--9--------------------------------
D|--------------------------------------------------
A|--------------------------------------------------
E|--------------------------------------------------

Well you only need the light when it s burning low
E|-----7-----------------------------
B|--10----10-8--8--8-----8-----8-----
G|--------------------9-----9--------
D|-----------------------------------
A|-----------------------------------
E|-----------------------------------

Only miss the sun when it s starts to snow
E|-----7-----------------7--------------
B|--10----10-8--10-10-8-----8--10-8-----
G|--------------------------------------
D|--------------------------------------
A|--------------------------------------
E|--------------------------------------

Only know your love her when you let her go
E|-----7--------------------------------
B|--10----10-8--10-8--------------8-----
G|--------------------9--9--9--7--------
D|--------------------------------------
A|--------------------------------------
E|--------------------------------------

tabs and chords, guitar tabs, music contests, music covers, songsterr, reverbnation, renditions, tabulature, bollywood chords, ultimate guitar, yousician, guitar lessons, torrins, fender, gibson, acoustic guitar, electric guitar, youtube covers, gootar, guitar tuner, A-Z tabs, 911 tabs