Guitar Tabs for Let Her Go - Passenger Guitar Tabs

(/) Slide Up  (\) Slide Down  (h) Hammer On  (p) Pull Off  (b) Bend (r) Release (v) Vibrato

Tabs for Song : Let Her Go

Well you only need the light when it's burning low
E|--------------------------------------
B|--12-12-10-12-10----------------------
G|-----------------12-12-12-12-12-9--12-
D|--------------------------------------
A|--------------------------------------
E|--------------------------------------

Only miss the sun when it starts to snow
E|--------------------------------
B|--10-12-10----10-10-10-12-10----
G|-----------12----------------12-
D|--------------------------------
A|--------------------------------
E|--------------------------------

Only know you love her when you let her go
E|-----------------------------------
B|--10-12-10----10----------------8--
G|-----------12----12-9--9--9--7-----
D|-----------------------------------
A|-----------------------------------
E|-----------------------------------

Only know you've been high when you're feeling low
E|-----------------------------------
B|--10-12-12-10----------------------
G|--------------12-12-12-12-12-9--12-
D|-----------------------------------
A|-----------------------------------
E|-----------------------------------

Only hate the road when you're missing home
E|-----------------------------------
B|--10-12-10----10-10----12-10-10----
G|-----------12-------12----------12-
D|-----------------------------------
A|-----------------------------------
E|-----------------------------------

Only know you love her when you let her go
E|-----------------------------------
B|--10-12-10----10----------------8--
G|-----------12----12-9--9--9--7-----
D|-----------------------------------
A|-----------------------------------
E|-----------------------------------

And you let her go
E|--------------------
B|--10----12-10-10----
G|-----12----------12-
D|--------------------
A|--------------------
E|--------------------

Staring at the bottom of your glass Hoping one day you'll make a dream last
E|-----------------------------------------------------------
B|--12-12-12-12-12-10-8--8--8-----12-12-12-10-10-10----------
G|--------------------------------------------------12-11-11-
D|-----------------------------------------------------------
A|-----------------------------------------------------------
E|-----------------------------------------------------------

But dreams come slow and they go so fast
E|--------------------------------
B|-----12-10----------12-10-------
G|--8--------12-9--9--------12-9--
D|--------------------------------
A|--------------------------------
E|--------------------------------

You see her when you close your eyes Maybe one day you'll understand why
E|-----------------------------------------------------------
B|--12-12-12-12-12-10-8--8--8-----12-12-12-10-10-10----------
G|--------------------------------------------------12-11-11-
D|-----------------------------------------------------------
A|-----------------------------------------------------------
E|-----------------------------------------------------------

Everything you touch surely dies
E|--------------------------------
B|--12-12-12-12-12-8--8--10-8-----
G|-----------------------------9--
D|--------------------------------
A|--------------------------------
E|--------------------------------

Again Repeat like Part 1..
tabs and chords, guitar tabs, music contests, music covers, songsterr, reverbnation, renditions, tabulature, bollywood chords, ultimate guitar, yousician, guitar lessons, torrins, fender, gibson, acoustic guitar, electric guitar, youtube covers, gootar, guitar tuner, A-Z tabs, 911 tabs