Guitar Tabs for Leonard Cohen - Hallelujah

Leonard Cohen - Hallelujah

Intro

    C                 G 
E|--------------------------------------
B|-----------1-----------------3--------
G|--------0-----0-----------0-----0-----
D|-----2-----------2-----0-----------0--
A|--3-----------------------------------
E|--------------------3-----------------

1st Verse

       C                 Am
 I've heard there was a secret chord
E|-----------------------------------------
B|--------------1-----------------1--------
G|-----------0-----0-----------2-----2-----
D|--------2-----------2-----2-----------2--
A|-----3-----------------0-----------------
E|-----------------------------------------

      C                    Am
That David played and it pleased the Lord
E|-----------------------------------------
B|--------------1-----------------1--------
G|-----------0-----0-----------2-----2-----
D|--------2-----------2-----2-----------2--
A|-----3-----------------0-----------------
E|-----------------------------------------

    F                 G                 C                  G
But you don't really care for music,    do you?
E|--------------------------------------------------------------------------
B|-----------------------------------------------1-----------------3--------
G|-----------2-----------------4--------------0-----0-----------0-----0-----
D|--------3-----3-----------5-----5--------2-----------2-----0-----------0--
A|-----3-----------3-----5-----------5--3-----------------------------------
E|--1-----------------3-----------------------------------3-----------------

    C                  F             G
It goes like this, the fourth, the fifth
E|--------------------------------------------
B|-----------1--------------------------------
G|--------0-----0-----------------------------
D|-----2-----------2--------3--------------5--
A|--3--------------------3--------------5-----
E|--------------------1--------------3--------

     Am              F
The minor fall, the major lift
E|--------------------------------------
B|-----------1--------------------------
G|--------2-----2--------------2--------
D|-----2-----------2--------3-----3-----
A|--0--------------------3-----------3--
E|--------------------1-----------------

     G/B             E7        Am
The baffled king composing Hallelujah
E|-----------3-----------------------------------------0--
B|--------3-----3-----------3-----------------1-----------
G|-----0-----------------1-----1-----------2-----2--------
D|--------------------2-----------2-----2-----------2-----
A|--2--------------------------------0--------------------
E|-----------------0--------------------------------------

Chorus

       F                                      Am
  Hallelujah,                              hallelujah
E|-----------------------1--------------------------------------0-----------------
B|--------------------------1--------------------------1-----------1--------------
G|--------------2--------------2--------------------2-----2-----------2-----------
D|-----------3-----3--------------3--------------2-----------2-----------2-----2--
A|--------3-----------3--------------3--------0-----------------------------0-----
E|-----1--------------------------------1-----------------------------------------

        F                                      C                 G
  Hallelujah,                             hallelu-           uuuhuuu
E|-----------------------1--------------------------------------------------------
B|--------------------------1--------------------------1-----------------3--------
G|--------------2--------------2--------------------0-----0-----------------0-----
D|-----------3-----3--------------3--------------2-----------2--------0--------0--
A|--------3-----------3--------------3--------3--------------------2--------------
E|-----1--------------------------------1-----------------------3-----------------

    C                  G
 uuhjah 
E|-----------------------------3--------
B|-----------1--------------------3-----
G|--------0-----0--------------------0--
D|-----2-----------2--------0-----------
A|--3--------------------2--------------
E|--------------------3-----------------

2nd Verse

       C                          Am
 Your faith was strong, but  you  needed proof
E|--------------------------------------------------
B|--------------1--------------------------1--------
G|-----------0-----0--------------------2-----2-----
D|--------2-----------2--------------2-----------2--
A|-----3--------------------------0-----------------
E|--------------------------------------------------

       C                 Am
  You saw her bathing    on the roof
E|-----------------------------------------
B|--------------1-----------------1--------
G|-----------0-----0-----------2-----2-----
D|--------2-----------2-----2-----------2--
A|-----3-----------------0-----------------
E|-----------------------------------------

    F                 G                 C                  G
Her beauty and the   moonlight     overthrew you
E|--------------------------------------------------------------------------
B|-----------------------------------------------1-----------------3--------
G|-----------2-----------------4--------------0-----0-----------0-----0-----
D|--------3-----3-----------5-----5--------2-----------2-----0-----------0--
A|-----3-----------3-----5-----------5--3-----------------------------------
E|--1-----------------3-----------------------------------3-----------------

       C                  F        G
     She tied you to  a  kitchen  chair
E|-----------------------------------------
B|--------------1--------------------------
G|-----------0-----0-----------------------
D|--------2-----------2--------3--------5--
A|-----3--------------------3--------5-----
E|-----------------------1--------3--------

     Am                         F
She broke your throne and she cut your hair
E|-----------------------------------------------
B|--------------1--------------------------------
G|-----------2--------2-----------------2--------
D|-----2-----------------2-----------3-----3-----
A|--0-----------------------------3-----------3--
E|-----------------------------1-----------------

     G/B                 E7               Am
And from your lip s she drew the     Hallelujah
E|-----------3-----------------------------------------------0--
B|--------3-----3-----------------3-----------------1-----------
G|-----0-----------------------1-----1-----------2-----2--------
D|--------------------------2-----------2-----2-----------2-----
A|--2--------------------------------------0--------------------
E|-----------------------0--------------------------------------

Chorus

       F                                      Am
  Hallelujah,                              hallelujah
E|-----------------------1--------------------------------------0-----------------
B|--------------------------1--------------------------1-----------1--------------
G|--------------2--------------2--------------------2-----2-----------2-----------
D|-----------3-----3--------------3--------------2-----------2-----------2-----2--
A|--------3-----------3--------------3--------0-----------------------------0-----
E|-----1--------------------------------1-----------------------------------------

        F                                      C                 G
  Hallelujah,                             hallelu-           uuuhuuu
E|-----------------------1--------------------------------------------------------
B|--------------------------1--------------------------1-----------------3--------
G|--------------2--------------2--------------------0-----0-----------------0-----
D|-----------3-----3--------------3--------------2-----------2--------0--------0--
A|--------3-----------3--------------3--------3--------------------2--------------
E|-----1--------------------------------1-----------------------3-----------------

    C                  G
 uuhjah 
E|-----------------------------3--------
B|-----------1--------------------3-----
G|--------0-----0--------------------0--
D|-----2-----------2--------0-----------
A|--3--------------------2--------------
E|--------------------3-----------------

3rd Verse

       C                 Am
Now, maybe there's a God above
E|-----------------------------------------
B|--------------1-----------------1--------
G|-----------0-----0-----------2-----2-----
D|--------2-----------2-----2-----------2--
A|-----3-----------------0-----------------
E|-----------------------------------------

        C                Am
   As for me, all I ever learned from love
E|-----------------------------------------
B|--------------1-----------------1--------
G|-----------0-----0-----------2-----2-----
D|--------2-----------2-----2-----------2--
A|-----3-----------------0-----------------
E|-----------------------------------------

    F                 G                 C                  G
Is how to shoot at someone who      outdrew you
E|--------------------------------------------------------------------------
B|-----------------------------------------------1-----------------3--------
G|-----------2-----------------4--------------0-----0-----------0-----0-----
D|--------3-----3-----------5-----5--------2-----------2-----0-----------0--
A|-----3-----------3-----5-----------5--3-----------------------------------
E|--1-----------------3-----------------------------------3-----------------

          C                  F       G
But it's not to cry that you hear tonight
E|--------------------------------------------
B|-----------------1--------------------------
G|--------------0-----0-----------------------
D|-----------2-----------2--------3--------5--
A|--------3--------------------3--------5-----
E|--------------------------1--------3--------

     Am                  F
It's not somebody who's seen the light
E|-----------------------------------------
B|-----------1-----------------------------
G|--------2-----2-----------------2--------
D|-----2-----------2-----------3-----3-----
A|--0-----------------------3-----------3--
E|-----------------------1-----------------

        G/B            E7               Am
It's a cold and it's a broken      Hallelujah
E|--------------3-----------------------------------------0--
B|-----------3-----3-----------3-----------------1-----------
G|--------0-----------------1-----1-----------2-----2--------
D|-----------------------2-----------2-----2-----------2-----
A|-----2--------------------------------0--------------------
E|--------------------0--------------------------------------

Chorus

       F                                      Am
  Hallelujah,                              hallelujah
E|-----------------------1--------------------------------------0-----------------
B|--------------------------1--------------------------1-----------1--------------
G|--------------2--------------2--------------------2-----2-----------2-----------
D|-----------3-----3--------------3--------------2-----------2-----------2-----2--
A|--------3-----------3--------------3--------0-----------------------------0-----
E|-----1--------------------------------1-----------------------------------------

        F                                      C                 G
  Hallelujah,                             hallelu-           uuuhuuu
E|-----------------------1--------------------------------------------------------
B|--------------------------1--------------------------1-----------------3--------
G|--------------2--------------2--------------------0-----0-----------------0-----
D|-----------3-----3--------------3--------------2-----------2--------0--------0--
A|--------3-----------3--------------3--------3--------------------2--------------
E|-----1--------------------------------1-----------------------3-----------------

    C                  G
 uuhjah 
E|-----------------------------3--------
B|-----------1--------------------3-----
G|--------0-----0--------------------0--
D|-----2-----------2--------0-----------
A|--3--------------------2--------------
E|--------------------3-----------------

Solo

    C                 Am                C                 Am  
E|--------------------------------------------------------------------------
B|-----------1-----------------1-----------------1-----------------1--------
G|--------0-----0-----------2-----2-----------0-----0-----------2-----2-----
D|-----2-----------2-----2-----------2-----2-----------2-----2-----------2--
A|--3-----------------0-----------------3-----------------0-----------------
E|--------------------------------------------------------------------------

    F                 G                 C                 G
E|--------------------------------------------------------------------------
B|-----------------------------------------------1-----------------3--------
G|-----------2-----------------4--------------0-----0-----------0-----0-----
D|--------3-----3-----------5-----5--------2-----------2-----0-----------0--
A|-----3-----------3-----5-----------5--3-----------------------------------
E|--1-----------------3-----------------------------------3-----------------

    C                 F        G        Am                 F  
E|-----------------------------------------------------------------------------
B|-----------1-----------------------------------1-----------------1-----------
G|--------0-----0-----------------------------2-----2-----------------2--------
D|-----2-----------2--------3--------5-----2-----------2--------3--------3-----
A|--3--------------------3--------5-----0--------------------3--------------3--
E|--------------------1--------3--------------------------1--------------------

   G/B                E7                Am
E|-----------3--------------------------------------------0--
B|--------3-----3--------------3-----------------1-----------
G|-----0-----------0--------------1-----------2-----2--------
D|--------------------------2--------2-----2-----------2-----
A|--2--------------------2--------------0--------------------
E|--------------------0--------------------------------------

Chorus

       F                                      Am
  Hallelujah,                              hallelujah
E|-----------------------1--------------------------------------0-----------------
B|--------------------------1--------------------------1-----------1--------------
G|--------------2--------------2--------------------2-----2-----------2-----------
D|-----------3-----3--------------3--------------2-----------2-----------2-----2--
A|--------3-----------3--------------3--------0-----------------------------0-----
E|-----1--------------------------------1-----------------------------------------

        F                                      C                 G
  Hallelujah,                             hallelu-           uuuhuuu
E|-----------------------1--------------------------------------------------------
B|--------------------------1--------------------------1-----------------3--------
G|--------------2--------------2--------------------0-----0-----------------0-----
D|-----------3-----3--------------3--------------2-----------2--------0--------0--
A|--------3-----------3--------------3--------3--------------------2--------------
E|-----1--------------------------------1-----------------------3-----------------

    C                  G
 uuhjah 
E|-----------------------------3--------
B|-----------1--------------------3-----
G|--------0-----0--------------------0--
D|-----2-----------2--------0-----------
A|--3--------------------2--------------
E|--------------------3-----------------

4th Verse

       C                 Am
Oh, people, I've been here before
E|-----------------------------------------
B|--------------1-----------------1--------
G|-----------0-----0-----------2-----2-----
D|--------2-----------2-----2-----------2--
A|-----3-----------------0-----------------
E|-----------------------------------------

      C                 Am
I know this room, I've walked this floor
E|-----------------------------------------
B|--------------1-----------------1--------
G|-----------0-----0-----------2-----2-----
D|--------2-----------2-----2-----------2--
A|-----3-----------------0-----------------
E|-----------------------------------------

    F                 G                    C                 G
You see, I used to   live alone before I  knew you
E|-----------------------------------------------------------------------------
B|--------------------------------------------------1-----------------3--------
G|-----------2-----------------4-----------------0-----0-----------0-----0-----
D|--------3-----3-----------5-----5-----------2-----------2-----0-----------0--
A|-----3-----------3-----5-----------5-----3-----------------------------------
E|--1-----------------3--------------------------------------3-----------------

    C                          F           G
And I've seen your flag on the Marble Arch
E|--------------------------------------------------
B|-----------1--------------------------------------
G|--------0-----0-----------------------------------
D|-----2-----------2-----------------3-----------5--
A|--3-----------------------------3-----------5-----
E|-----------------------------1-----------3--------

     Am                        F
But listen love, love is not a victory march
E|-----------------------------------------------
B|-----------1-----------------------------------
G|--------2-----2-----------------------2--------
D|-----2-----------2-----------------3-----3-----
A|--0-----------------------------3-----------3--
E|-----------------------------1-----------------
 
       G/B             E7               Am
It's a cold a it's a very lonely   Hallelujah
E|--------------3-----------------------------------------0--
B|-----------3-----3-----------3-----------------1-----------
G|--------0-----------------1-----1-----------2-----2--------
D|-----------------------2-----------2-----2-----------2-----
A|-----2--------------------------------0--------------------
E|--------------------0--------------------------------------

Chorus

       F                                      Am
  Hallelujah,                              hallelujah
E|-----------------------1--------------------------------------0-----------------
B|--------------------------1--------------------------1-----------1--------------
G|--------------2--------------2--------------------2-----2-----------2-----------
D|-----------3-----3--------------3--------------2-----------2-----------2-----2--
A|--------3-----------3--------------3--------0-----------------------------0-----
E|-----1--------------------------------1-----------------------------------------

        F                                      C                 G
  Hallelujah,                             hallelu-           uuuhuuu
E|-----------------------1--------------------------------------------------------
B|--------------------------1--------------------------1-----------------3--------
G|--------------2--------------2--------------------0-----0-----------------0-----
D|-----------3-----3--------------3--------------2-----------2--------0--------0--
A|--------3-----------3--------------3--------3--------------------2--------------
E|-----1--------------------------------1-----------------------3-----------------

    C                  G
 uuhjah 
E|-----------------------------3--------
B|-----------1--------------------3-----
G|--------0-----0--------------------0--
D|-----2-----------2--------0-----------
A|--3--------------------2--------------
E|--------------------3-----------------

5th Verse

       C                 Am
There was a time you let me know
E|-----------------------------------------
B|--------------1-----------------1--------
G|-----------0-----0-----------2-----2-----
D|--------2-----------2-----2-----------2--
A|-----3-----------------0-----------------
E|-----------------------------------------

      C                    Am
  What's really going on below
E|-----------------------------------------
B|--------------1-----------------1--------
G|-----------0-----0-----------2-----2-----
D|--------2-----------2-----2-----------2--
A|-----3-----------------0-----------------
E|-----------------------------------------

    F                 G                 C                  G
But now, now you never even show it to me, do you?
E|--------------------------------------------------------------------------
B|-----------------------------------------------1-----------------3--------
G|-----------2-----------------4--------------0-----0-----------0-----0-----
D|--------3-----3-----------5-----5--------2-----------2-----0-----------0--
A|-----3-----------3-----5-----------5--3-----------------------------------
E|--1-----------------3-----------------------------------3-----------------

    C                  F             G
I remember when I moved in you
E|--------------------------------------------
B|-----------1--------------------------------
G|--------0-----0-----------------------------
D|-----2-----------2--------3--------------5--
A|--3--------------------3--------------5-----
E|--------------------1--------------3--------

     Am              F
And the holy dove was moving too
E|--------------------------------------
B|-----------1--------------------------
G|--------2-----2--------------2--------
D|-----2-----------2--------3-----3-----
A|--0--------------------3-----------3--
E|--------------------1-----------------

     G/B             E7        Am
And every single breath that we drew was Hallelujah
E|-----------3-----------------------------------------0--
B|--------3-----3-----------3-----------------1-----------
G|-----0-----------------1-----1-----------2-----2--------
D|--------------------2-----------2-----2-----------2-----
A|--2--------------------------------0--------------------
E|-----------------0--------------------------------------

Chorus

       F                                      Am
  Hallelujah,                              hallelujah
E|-----------------------1--------------------------------------0-----------------
B|--------------------------1--------------------------1-----------1--------------
G|--------------2--------------2--------------------2-----2-----------2-----------
D|-----------3-----3--------------3--------------2-----------2-----------2-----2--
A|--------3-----------3--------------3--------0-----------------------------0-----
E|-----1--------------------------------1-----------------------------------------

        F                                      C                 G
  Hallelujah,                             hallelu-           uuuhuuu
E|-----------------------1--------------------------------------------------------
B|--------------------------1--------------------------1-----------------3--------
G|--------------2--------------2--------------------0-----0-----------------0-----
D|-----------3-----3--------------3--------------2-----------2--------0--------0--
A|--------3-----------3--------------3--------3--------------------2--------------
E|-----1--------------------------------1-----------------------3-----------------

    C                  G
 uuhjah 
E|-----------------------------3--------
B|-----------1--------------------3-----
G|--------0-----0--------------------0--
D|-----2-----------2--------0-----------
A|--3--------------------2--------------
E|--------------------3-----------------

6th Verse

       C                 Am
I've done my best, I know it wasn't much
E|-----------------------------------------
B|--------------1-----------------1--------
G|-----------0-----0-----------2-----2-----
D|--------2-----------2-----2-----------2--
A|-----3-----------------0-----------------
E|-----------------------------------------

      C                    Am
I couldn't feel, so I     learned to touch
E|-----------------------------------------
B|--------------1-----------------1--------
G|-----------0-----0-----------2-----2-----
D|--------2-----------2-----2-----------2--
A|-----3-----------------0-----------------
E|-----------------------------------------

       F                  G                      C                 G
 I've told the truth,     I didn't come here to fool you
E|-----------------------------------------------------------------------------------
B|--------------------------------------------------------1-----------------3--------
G|--------------2-----------------4--------------------0-----0-----------0-----0-----
D|-----------3-----3-----------5-----5--------------2-----------2-----0-----------0--
A|--------3-----------3-----5-----------5--------3-----------------------------------
E|-----1-----------------3-----------------------------------------3-----------------

    C                 F           G
And even though it    all went    wrong
E|-----------------------------------------
B|-----------1-----------------------------
G|--------0-----0--------------------------
D|-----2-----------2--------3-----------5--
A|--3--------------------3-----------5-----
E|--------------------1-----------3--------

       Am                         F
I'll stand right here, before the Lord of Song
E|--------------------------------------------------
B|--------------1-----------------------------------
G|-----------2-----2-----------------------2--------
D|--------2-----------2-----------------3-----3-----
A|-----0-----------------------------3-----------3--
E|--------------------------------1-----------------

     G/B                    E7                Am
With nothing, nothing on my tongue but   Hallelujah
E|-----------3--------------------------------------------------0--
B|--------3-----3--------------------3-----------------1-----------
G|-----0--------------------------1-----1-----------2-----2--------
D|-----------------------------2-----------2-----2-----------2-----
A|--2-----------------------------------------0--------------------
E|--------------------------0--------------------------------------

Chorus

       F                                      Am
  Hallelujah,                              hallelujah
E|-----------------------1--------------------------------------0-----------------
B|--------------------------1--------------------------1-----------1--------------
G|--------------2--------------2--------------------2-----2-----------2-----------
D|-----------3-----3--------------3--------------2-----------2-----------2-----2--
A|--------3-----------3--------------3--------0-----------------------------0-----
E|-----1--------------------------------1-----------------------------------------

        F                                      C                 G
  Hallelujah,                             hallelu-           uuuhuuu
E|-----------------------1--------------------------------------------------------
B|--------------------------1--------------------------1-----------------3--------
G|--------------2--------------2--------------------0-----0-----------------0-----
D|-----------3-----3--------------3--------------2-----------2--------0--------0--
A|--------3-----------3--------------3--------3--------------------2--------------
E|-----1--------------------------------1-----------------------3-----------------

    C                 G     C
 uuhjah 
E|--------------------3-----0--
B|-----------1--------3-----1--
G|--------0-----0-----0-----0--
D|-----2-----------2--0-----2--
A|--3-----------------2-----3--
E|--------------------3--------
tabs and chords, guitar tabs, music transcription, music technology, deep learning, music information retrieval, transcribe into tabs & chords, chordify, music renditions, songsterr, reverbnation, tabulature, bollywood chords, ultimate guitar, yousician, guitar lessons, acoustic guitar, electric guitar, guitar tuner, 911 tabs