Guitar Tabs for Hallelujah By Leonard Cohen

Tabs for Song : 

Intro


E|-----------0-----------------0-----------------0-----------------0--------
B|--------1-----1-----------1-----1-----------1-----1-----------1-----1-----
G|-----0-----------0-----2-----------2-----0-----------0-----2-----------2--
D|--------------------------------------------------------------------------
A|--3-----------------0-----------------3-----------------0-----------------
E|--------------------------------------------------------------------------

Verse 1
I've heard their war a secret chord that David played and it pleased the Lord,
E|-----------0-----------------0-----------------0-----------------0--------
B|--------1-----1-----------1-----1-----------1-----1-----------1-----1-----
G|-----0-----------0-----2-----------2-----0-----------0-----2-----------2--
D|--------------------------------------------------------------------------
A|--3-----------------0-----------------3-----------------0-----------------
E|--------------------------------------------------------------------------
But you don't really care for music do you
E|-----------1-----------------3-----------------0-----------------0--------
B|--------1-----1-----------0-----0-----------1-----1-----------1-----1-----
G|-----2-----------2-----0-----------0-----0-----------0-----2-----------2--
D|--------------------------------------------------------------------------
A|--------------------------------------3-----------------0-----------------
E|--1-----------------3-----------------------------------------------------
  It goes like this the fourth, the fifth, The minor fall, the major lift
E|-----------0-----------------------------------0-----------------1--------
B|--------1-----1-----------1--------3--------1-----1-----------1-----1-----
G|-----0-----------0-----2--------4--------2-----------2-----2-----------2--
D|--------------------------------------------------------------------------
A|--3-----------------------------------0-----------------------------------
E|--------------------1--------3--------------------------1-----------------
 The Baffled King composing Hallelujah
E|-----------3-----------------0-----------------0--------
B|--------0-----0-----------0-----0-----------1-----1-----
G|-----0-----------0-----0-----------0-----2-----------2--
D|--------------------------------------------------------
A|--------------------------------------0-----------------
E|--3-----------------0-----------------------------------

Chorus
 Hallelujah,                               Hallelujah,
E|-----------1-----------------1-----------------0-----------------0--------
B|--------1-----1-----------1-----1-----------1-----1-----------1-----1-----
G|-----2-----------2-----2-----------2-----2-----------2-----2-----------2--
D|--------------------------------------------------------------------------
A|--------------------------------------0-----------------0-----------------
E|--1-----------------1-----------------------------------------------------
 Hallelujah,                               Hallelujah,
E|-----------1-----------------1-----------------0-----------------1--------
B|--------1-----1-----------1-----1-----------1-----1-----------0-----0-----
G|-----2-----------2-----2-----------2-----0-----------0-----0-----------0--
D|--------------------------------------------------------------------------
A|--------------------------------------3-----------------------------------
E|--1-----------------1-----------------------------------3-----------------

E|-----------0-----------------1--------
B|--------1-----1-----------0-----0-----
G|-----0-----------0-----0-----------0--
D|--------------------------------------
A|--3-----------------------------------
E|--------------------3-----------------

Verse 2
Your faith was strong but you needed proof you saw her bathing on the roof
E|-----------0-----------------0-----------------0-----------------0--------
B|--------1-----1-----------1-----1-----------1-----1-----------1-----1-----
G|-----0-----------0-----2-----------2-----0-----------0-----2-----------2--
D|--------------------------------------------------------------------------
A|--3-----------------0-----------------3-----------------0-----------------
E|--------------------------------------------------------------------------
Her beauty in the moonligh overthrew you
E|-----------1-----------------3-----------------0-----------------0--------
B|--------1-----1-----------0-----0-----------1-----1-----------1-----1-----
G|-----2-----------2-----0-----------0-----0-----------0-----2-----------2--
D|--------------------------------------------------------------------------
A|--------------------------------------3-----------------0-----------------
E|--1-----------------3-----------------------------------------------------
 She tied you to a kitchen chair she broke your thromne, she cut your hair
E|-----------0-----------------------------------0-----------------1--------
B|--------1-----1-----------1--------3--------1-----1-----------1-----1-----
G|-----0-----------0-----2--------4--------2-----------2-----2-----------2--
D|--------------------------------------------------------------------------
A|--3-----------------------------------0-----------------------------------
E|--------------------1--------3--------------------------1-----------------
And from your lips she drew the hallelujah
E|-----------3-----------------0-----------------0--------
B|--------0-----0-----------0-----0-----------1-----1-----
G|-----0-----------0-----0-----------0-----2-----------2--
D|--------------------------------------------------------
A|--------------------------------------0-----------------
E|--3-----------------0-----------------------------------

Chorus
 Hallelujah,                               Hallelujah,
E|-----------1-----------------1-----------------0-----------------0--------
B|--------1-----1-----------1-----1-----------1-----1-----------1-----1-----
G|-----2-----------2-----2-----------2-----2-----------2-----2-----------2--
D|--------------------------------------------------------------------------
A|--------------------------------------0-----------------0-----------------
E|--1-----------------1-----------------------------------------------------
 Hallelujah,                               Hallelujah,
E|-----------1-----------------1-----------------0-----------------1--------
B|--------1-----1-----------1-----1-----------1-----1-----------0-----0-----
G|-----2-----------2-----2-----------2-----0-----------0-----0-----------0--
D|--------------------------------------------------------------------------
A|--------------------------------------3-----------------------------------
E|--1-----------------1-----------------------------------3-----------------

E|-----------0-----------------1--------
B|--------1-----1-----------0-----0-----
G|-----0-----------0-----0-----------0--
D|--------------------------------------
A|--3-----------------------------------
E|--------------------3-----------------

Verse 3
Maybe I've been here before I know this room, I've walked this floor
E|-----------0-----------------0-----------------0-----------------0--------
B|--------1-----1-----------1-----1-----------1-----1-----------1-----1-----
G|-----0-----------0-----2-----------2-----0-----------0-----2-----------2--
D|--------------------------------------------------------------------------
A|--3-----------------0-----------------3-----------------0-----------------
E|--------------------------------------------------------------------------
I used to live alone before I knew you
E|-----------1-----------------3-----------------0-----------------0--------
B|--------1-----1-----------0-----0-----------1-----1-----------1-----1-----
G|-----2-----------2-----0-----------0-----0-----------0-----2-----------2--
D|--------------------------------------------------------------------------
A|--------------------------------------3-----------------0-----------------
E|--1-----------------3-----------------------------------------------------
  I've seen your flag on the marble arch Love is not a victory march
E|-----------0-----------------------------------0-----------------1--------
B|--------1-----1-----------1--------3--------1-----1-----------1-----1-----
G|-----0-----------0-----2--------4--------2-----------2-----2-----------2--
D|--------------------------------------------------------------------------
A|--3-----------------------------------0-----------------------------------
E|--------------------1--------3--------------------------1-----------------
 It's a cold and it's a broken hallelujah
E|-----------3-----------------0-----------------0--------
B|--------0-----0-----------0-----0-----------1-----1-----
G|-----0-----------0-----0-----------0-----2-----------2--
D|--------------------------------------------------------
A|--------------------------------------0-----------------
E|--3-----------------0-----------------------------------

Chorus
 Hallelujah,                               Hallelujah,
E|-----------1-----------------1-----------------0-----------------0--------
B|--------1-----1-----------1-----1-----------1-----1-----------1-----1-----
G|-----2-----------2-----2-----------2-----2-----------2-----2-----------2--
D|--------------------------------------------------------------------------
A|--------------------------------------0-----------------0-----------------
E|--1-----------------1-----------------------------------------------------
 Hallelujah,                               Hallelujah,
E|-----------1-----------------1-----------------0-----------------1--------
B|--------1-----1-----------1-----1-----------1-----1-----------0-----0-----
G|-----2-----------2-----2-----------2-----0-----------0-----0-----------0--
D|--------------------------------------------------------------------------
A|--------------------------------------3-----------------------------------
E|--1-----------------1-----------------------------------3-----------------

E|-----------0-----------------1--------
B|--------1-----1-----------0-----0-----
G|-----0-----------0-----0-----------0--
D|--------------------------------------
A|--3-----------------------------------
E|--------------------3-----------------

Verse 4:
There was a time when you let me know what's real and going on below
E|-----------0-----------------0-----------------0-----------------0--------
B|--------1-----1-----------1-----1-----------1-----1-----------1-----1-----
G|-----0-----------0-----2-----------2-----0-----------0-----2-----------2--
D|--------------------------------------------------------------------------
A|--3-----------------0-----------------3-----------------0-----------------
E|--------------------------------------------------------------------------
 But now you never show it to me do you
E|-----------1-----------------3-----------------0-----------------0--------
B|--------1-----1-----------0-----0-----------1-----1-----------1-----1-----
G|-----2-----------2-----0-----------0-----0-----------0-----2-----------2--
D|--------------------------------------------------------------------------
A|--------------------------------------3-----------------0-----------------
E|--1-----------------3-----------------------------------------------------
 Remember when I moved in you the Holy Dark was moving too
E|-----------0-----------------------------------0-----------------1--------
B|--------1-----1-----------1--------3--------1-----1-----------1-----1-----
G|-----0-----------0-----2--------4--------2-----------2-----2-----------2--
D|--------------------------------------------------------------------------
A|--3-----------------------------------0-----------------------------------
E|--------------------1--------3--------------------------1-----------------
 And every breath we drew was hallelujah
E|-----------3-----------------0-----------------0--------
B|--------0-----0-----------0-----0-----------1-----1-----
G|-----0-----------0-----0-----------0-----2-----------2--
D|--------------------------------------------------------
A|--------------------------------------0-----------------
E|--3-----------------0-----------------------------------

Chorus
 Hallelujah,                               Hallelujah,
E|-----------1-----------------1-----------------0-----------------0--------
B|--------1-----1-----------1-----1-----------1-----1-----------1-----1-----
G|-----2-----------2-----2-----------2-----2-----------2-----2-----------2--
D|--------------------------------------------------------------------------
A|--------------------------------------0-----------------0-----------------
E|--1-----------------1-----------------------------------------------------
 Hallelujah,                               Hallelujah,
E|-----------1-----------------1-----------------0-----------------1--------
B|--------1-----1-----------1-----1-----------1-----1-----------0-----0-----
G|-----2-----------2-----2-----------2-----0-----------0-----0-----------0--
D|--------------------------------------------------------------------------
A|--------------------------------------3-----------------------------------
E|--1-----------------1-----------------------------------3-----------------

E|-----------0-----------------1--------
B|--------1-----1-----------0-----0-----
G|-----0-----------0-----0-----------0--
D|--------------------------------------
A|--3-----------------------------------
E|--------------------3-----------------

Verse 5:
Maybe there's a God above and all I ever learned from love
E|-----------0-----------------0-----------------0-----------------0--------
B|--------1-----1-----------1-----1-----------1-----1-----------1-----1-----
G|-----0-----------0-----2-----------2-----0-----------0-----2-----------2--
D|--------------------------------------------------------------------------
A|--3-----------------0-----------------3-----------------0-----------------
E|--------------------------------------------------------------------------
  Was how to shoot at someone who outdrew you
E|-----------1-----------------3-----------------0-----------------0--------
B|--------1-----1-----------0-----0-----------1-----1-----------1-----1-----
G|-----2-----------2-----0-----------0-----0-----------0-----2-----------2--
D|--------------------------------------------------------------------------
A|--------------------------------------3-----------------0-----------------
E|--1-----------------3-----------------------------------------------------
 It's not a cry you hear at night it's not somebody who's seen the light
E|-----------0-----------------------------------0-----------------1--------
B|--------1-----1-----------1--------3--------1-----1-----------1-----1-----
G|-----0-----------0-----2--------4--------2-----------2-----2-----------2--
D|--------------------------------------------------------------------------
A|--3-----------------------------------0-----------------------------------
E|--------------------1--------3--------------------------1-----------------
  It's a cold and it's a broken hallelujah
E|-----------3-----------------0-----------------0--------
B|--------0-----0-----------0-----0-----------1-----1-----
G|-----0-----------0-----0-----------0-----2-----------2--
D|--------------------------------------------------------
A|--------------------------------------0-----------------
E|--3-----------------0-----------------------------------

Chorus
 Hallelujah,                               Hallelujah,
E|-----------1-----------------1-----------------0-----------------0--------
B|--------1-----1-----------1-----1-----------1-----1-----------1-----1-----
G|-----2-----------2-----2-----------2-----2-----------2-----2-----------2--
D|--------------------------------------------------------------------------
A|--------------------------------------0-----------------0-----------------
E|--1-----------------1-----------------------------------------------------
 Hallelujah,                               Hallelujah,
E|-----------1-----------------1-----------------0-----------------1--------
B|--------1-----1-----------1-----1-----------1-----1-----------0-----0-----
G|-----2-----------2-----2-----------2-----0-----------0-----0-----------0--
D|--------------------------------------------------------------------------
A|--------------------------------------3-----------------------------------
E|--1-----------------1-----------------------------------3-----------------

E|-----------0-----------------1--------
B|--------1-----1-----------0-----0-----
G|-----0-----------0-----0-----------0--
D|--------------------------------------
A|--3-----------------------------------
E|--------------------3-----------------
 Hallelujah,                               Hallelujah,
E|-----------1-----------------1-----------------0-----------------0--------
B|--------1-----1-----------1-----1-----------1-----1-----------1-----1-----
G|-----2-----------2-----2-----------2-----2-----------2-----2-----------2--
D|--------------------------------------------------------------------------
A|--------------------------------------0-----------------0-----------------
E|--1-----------------1-----------------------------------------------------
 Hallelujah,                               Hallelujah,
E|-----------1-----------------1-----------------0-----------------1--------
B|--------1-----1-----------1-----1-----------1-----1-----------0-----0-----
G|-----2-----------2-----2-----------2-----0-----------0-----0-----------0--
D|--------------------------------------------------------------------------
A|--------------------------------------3-----------------------------------
E|--1-----------------1-----------------------------------3-----------------

E|-----------0-----------------1--------
B|--------1-----1-----------0-----0-----
G|-----0-----------0-----0-----------0--
D|--------------------------------------
A|--3-----------------------------------
E|--------------------3-----------------






 

Guitar Tabs for Hallelujah By Leonard Cohen



  Intro

E|--0-----------------0-----------------0-----------------0-----------------
B|--1-----------------1-----------------1-----------------1-----------------
G|--0-----------------2-----------------0-----------------2-----------------
D|--2-----------------2-----------------2-----------------2-----------------
A|--3-----------------0-----------------3-----------------0-----------------
E|--------------------------------------------------------------------------

 Verse 1:
 I've heard their war a secret chord that David played and it pleased the Lord,
E|--0-----------------0-----------------0-----------------0-----------------
B|--1-----------------1-----------------1-----------------1-----------------
G|--0-----------------2-----------------0-----------------2-----------------
D|--2-----------------2-----------------2-----------------2-----------------
A|--3-----------------0-----------------3-----------------0-----------------
E|--------------------------------------------------------------------------
But you don't really care for music do you
E|--1-----------------3-----------------0-----------------0-----------------
B|--1-----------------3-----------------1-----------------1-----------------
G|--2-----------------4-----------------0-----------------2-----------------
D|--3-----------------5-----------------2-----------------2-----------------
A|--3-----------------5-----------------3-----------------0-----------------
E|--1-----------------3-----------------------------------------------------
 It goes like this the fourth, the fifth, The minor fall, the major lift
E|--0-----------------1--------3--------0-----------------1-----------------
B|--1-----------------1--------3--------1-----------------1-----------------
G|--0-----------------2--------4--------2-----------------2-----------------
D|--2-----------------3--------5--------2-----------------3-----------------
A|--3-----------------3--------5--------0-----------------3-----------------
E|--------------------1--------3--------------------------1-----------------
 The Baffled King composing Hallelujah
E|--3-----------------0-----------------0-----------------
B|--3-----------------0-----------------1-----------------
G|--4-----------------0-----------------2-----------------
D|--5-----------------2-----------------2-----------------
A|--5-----------------2-----------------0-----------------
E|--3-----------------0-----------------------------------

Chorus
 Hallelujah,                               Hallelujah,
E|--1-----------------1-----------------0-----------------0-----------------
B|--1-----------------1-----------------1-----------------1-----------------
G|--2-----------------2-----------------2-----------------2-----------------
D|--3-----------------3-----------------2-----------------2-----------------
A|--3-----------------3-----------------0-----------------0-----------------
E|--1-----------------1-----------------------------------------------------
 Hallelujah,                               Hallelujah,
E|--1-----------------1-----------------0-----------------1-----------------
B|--1-----------------1-----------------1-----------------0-----------------
G|--2-----------------2-----------------0-----------------0-----------------
D|--3-----------------3-----------------2-----------------0-----------------
A|--3-----------------3-----------------3-----------------2-----------------
E|--1-----------------1-----------------------------------3-----------------

E|--0-----------------1-----------------
B|--1-----------------0-----------------
G|--0-----------------0-----------------
D|--2-----------------0-----------------
A|--3-----------------2-----------------
E|--------------------3-----------------

 Verse 2:
 Your faith was strong but you needed proof you saw her bathing on the roof
E|--0-----------------0-----------------0-----------------0-----------------
B|--1-----------------1-----------------1-----------------1-----------------
G|--0-----------------2-----------------0-----------------2-----------------
D|--2-----------------2-----------------2-----------------2-----------------
A|--3-----------------0-----------------3-----------------0-----------------
E|--------------------------------------------------------------------------
Her beauty in the moonligh overthrew you
E|--1-----------------3-----------------0-----------------0-----------------
B|--1-----------------3-----------------1-----------------1-----------------
G|--2-----------------4-----------------0-----------------2-----------------
D|--3-----------------5-----------------2-----------------2-----------------
A|--3-----------------5-----------------3-----------------0-----------------
E|--1-----------------3-----------------------------------------------------
  She tied you to a kitchen chair she broke your thromne, she cut your hair
E|--0-----------------1--------3--------0-----------------1-----------------
B|--1-----------------1--------3--------1-----------------1-----------------
G|--0-----------------2--------4--------2-----------------2-----------------
D|--2-----------------3--------5--------2-----------------3-----------------
A|--3-----------------3--------5--------0-----------------3-----------------
E|--------------------1--------3--------------------------1-----------------
 And from your lips she drew the hallelujah
E|--3-----------------0-----------------0-----------------
B|--3-----------------0-----------------1-----------------
G|--4-----------------0-----------------2-----------------
D|--5-----------------2-----------------2-----------------
A|--5-----------------2-----------------0-----------------
E|--3-----------------0-----------------------------------

Chorus
 Hallelujah,                               Hallelujah,
E|--1-----------------1-----------------0-----------------0-----------------
B|--1-----------------1-----------------1-----------------1-----------------
G|--2-----------------2-----------------2-----------------2-----------------
D|--3-----------------3-----------------2-----------------2-----------------
A|--3-----------------3-----------------0-----------------0-----------------
E|--1-----------------1-----------------------------------------------------
 Hallelujah,                               Hallelujah,
E|--1-----------------1-----------------0-----------------1-----------------
B|--1-----------------1-----------------1-----------------0-----------------
G|--2-----------------2-----------------0-----------------0-----------------
D|--3-----------------3-----------------2-----------------0-----------------
A|--3-----------------3-----------------3-----------------2-----------------
E|--1-----------------1-----------------------------------3-----------------

E|--0-----------------1-----------------
B|--1-----------------0-----------------
G|--0-----------------0-----------------
D|--2-----------------0-----------------
A|--3-----------------2-----------------
E|--------------------3-----------------

 Verse 3:
 Maybe I've been here before I know this room, I've walked this floor
E|--0-----------------0-----------------0-----------------0-----------------
B|--1-----------------1-----------------1-----------------1-----------------
G|--0-----------------2-----------------0-----------------2-----------------
D|--2-----------------2-----------------2-----------------2-----------------
A|--3-----------------0-----------------3-----------------0-----------------
E|--------------------------------------------------------------------------
I used to live alone before I knew you
E|--1-----------------3-----------------0-----------------0-----------------
B|--1-----------------3-----------------1-----------------1-----------------
G|--2-----------------4-----------------0-----------------2-----------------
D|--3-----------------5-----------------2-----------------2-----------------
A|--3-----------------5-----------------3-----------------0-----------------
E|--1-----------------3-----------------------------------------------------
    I've seen your flag on the marble arch Love is not a victory march
E|--0-----------------1--------3--------0-----------------1-----------------
B|--1-----------------1--------3--------1-----------------1-----------------
G|--0-----------------2--------4--------2-----------------2-----------------
D|--2-----------------3--------5--------2-----------------3-----------------
A|--3-----------------3--------5--------0-----------------3-----------------
E|--------------------1--------3--------------------------1-----------------
 It's a cold and it's a broken hallelujah
E|--3-----------------0-----------------0-----------------
B|--3-----------------0-----------------1-----------------
G|--4-----------------0-----------------2-----------------
D|--5-----------------2-----------------2-----------------
A|--5-----------------2-----------------0-----------------
E|--3-----------------0-----------------------------------

Chorus
 Hallelujah,                               Hallelujah,
E|--1-----------------1-----------------0-----------------0-----------------
B|--1-----------------1-----------------1-----------------1-----------------
G|--2-----------------2-----------------2-----------------2-----------------
D|--3-----------------3-----------------2-----------------2-----------------
A|--3-----------------3-----------------0-----------------0-----------------
E|--1-----------------1-----------------------------------------------------
 Hallelujah,                               Hallelujah,
E|--1-----------------1-----------------0-----------------1-----------------
B|--1-----------------1-----------------1-----------------0-----------------
G|--2-----------------2-----------------0-----------------0-----------------
D|--3-----------------3-----------------2-----------------0-----------------
A|--3-----------------3-----------------3-----------------2-----------------
E|--1-----------------1-----------------------------------3-----------------

E|--0-----------------1-----------------
B|--1-----------------0-----------------
G|--0-----------------0-----------------
D|--2-----------------0-----------------
A|--3-----------------2-----------------
E|--------------------3-----------------

Verse 4:
There was a time when you let me know what's real and going on below
E|--0-----------------0-----------------0-----------------0-----------------
B|--1-----------------1-----------------1-----------------1-----------------
G|--0-----------------2-----------------0-----------------2-----------------
D|--2-----------------2-----------------2-----------------2-----------------
A|--3-----------------0-----------------3-----------------0-----------------
E|--------------------------------------------------------------------------
 But now you never show it to me do you
E|--1-----------------3-----------------0-----------------0-----------------
B|--1-----------------3-----------------1-----------------1-----------------
G|--2-----------------4-----------------0-----------------2-----------------
D|--3-----------------5-----------------2-----------------2-----------------
A|--3-----------------5-----------------3-----------------0-----------------
E|--1-----------------3-----------------------------------------------------
   Remember when I moved in you the Holy Dark was moving too
E|--0-----------------1--------3--------0-----------------1-----------------
B|--1-----------------1--------3--------1-----------------1-----------------
G|--0-----------------2--------4--------2-----------------2-----------------
D|--2-----------------3--------5--------2-----------------3-----------------
A|--3-----------------3--------5--------0-----------------3-----------------
E|--------------------1--------3--------------------------1-----------------
 And every breath we drew was hallelujah
E|--3-----------------0-----------------0-----------------
B|--3-----------------0-----------------1-----------------
G|--4-----------------0-----------------2-----------------
D|--5-----------------2-----------------2-----------------
A|--5-----------------2-----------------0-----------------
E|--3-----------------0-----------------------------------

Chorus
 Hallelujah,                               Hallelujah,
E|--1-----------------1-----------------0-----------------0-----------------
B|--1-----------------1-----------------1-----------------1-----------------
G|--2-----------------2-----------------2-----------------2-----------------
D|--3-----------------3-----------------2-----------------2-----------------
A|--3-----------------3-----------------0-----------------0-----------------
E|--1-----------------1-----------------------------------------------------
 Hallelujah,                               Hallelujah,
E|--1-----------------1-----------------0-----------------1-----------------
B|--1-----------------1-----------------1-----------------0-----------------
G|--2-----------------2-----------------0-----------------0-----------------
D|--3-----------------3-----------------2-----------------0-----------------
A|--3-----------------3-----------------3-----------------2-----------------
E|--1-----------------1-----------------------------------3-----------------

E|--0-----------------1-----------------
B|--1-----------------0-----------------
G|--0-----------------0-----------------
D|--2-----------------0-----------------
A|--3-----------------2-----------------
E|--------------------3-----------------

Verse 5:
Maybe there's a God above and all I ever learned from love
E|--0-----------------0-----------------0-----------------0-----------------
B|--1-----------------1-----------------1-----------------1-----------------
G|--0-----------------2-----------------0-----------------2-----------------
D|--2-----------------2-----------------2-----------------2-----------------
A|--3-----------------0-----------------3-----------------0-----------------
E|--------------------------------------------------------------------------
Was how to shoot at someone who outdrew you
E|--1-----------------3-----------------0-----------------0-----------------
B|--1-----------------3-----------------1-----------------1-----------------
G|--2-----------------4-----------------0-----------------2-----------------
D|--3-----------------5-----------------2-----------------2-----------------
A|--3-----------------5-----------------3-----------------0-----------------
E|--1-----------------3-----------------------------------------------------
   It's not a cry you hear at night it's not somebody who's seen the light
E|--0-----------------1--------3--------0-----------------1-----------------
B|--1-----------------1--------3--------1-----------------1-----------------
G|--0-----------------2--------4--------2-----------------2-----------------
D|--2-----------------3--------5--------2-----------------3-----------------
A|--3-----------------3--------5--------0-----------------3-----------------
E|--------------------1--------3--------------------------1-----------------
 It's a cold and it's a broken hallelujah
E|--3-----------------0-----------------0-----------------
B|--3-----------------0-----------------1-----------------
G|--4-----------------0-----------------2-----------------
D|--5-----------------2-----------------2-----------------
A|--5-----------------2-----------------0-----------------
E|--3-----------------0-----------------------------------

Chorus
 Hallelujah,                               Hallelujah,
E|--1-----------------1-----------------0-----------------0-----------------
B|--1-----------------1-----------------1-----------------1-----------------
G|--2-----------------2-----------------2-----------------2-----------------
D|--3-----------------3-----------------2-----------------2-----------------
A|--3-----------------3-----------------0-----------------0-----------------
E|--1-----------------1-----------------------------------------------------
 Hallelujah,                               Hallelujah,
E|--1-----------------1-----------------0-----------------1-----------------
B|--1-----------------1-----------------1-----------------0-----------------
G|--2-----------------2-----------------0-----------------0-----------------
D|--3-----------------3-----------------2-----------------0-----------------
A|--3-----------------3-----------------3-----------------2-----------------
E|--1-----------------1-----------------------------------3-----------------

E|--0-----------------1-----------------
B|--1-----------------0-----------------
G|--0-----------------0-----------------
D|--2-----------------0-----------------
A|--3-----------------2-----------------
E|--------------------3-----------------
 Hallelujah,                               Hallelujah,
E|--1-----------------1-----------------0-----------------0-----------------
B|--1-----------------1-----------------1-----------------1-----------------
G|--2-----------------2-----------------2-----------------2-----------------
D|--3-----------------3-----------------2-----------------2-----------------
A|--3-----------------3-----------------0-----------------0-----------------
E|--1-----------------1-----------------------------------------------------
 Hallelujah,                               Hallelujah,
E|--1-----------------1-----------------0-----------------1-----------------
B|--1-----------------1-----------------1-----------------0-----------------
G|--2-----------------2-----------------0-----------------0-----------------
D|--3-----------------3-----------------2-----------------0-----------------
A|--3-----------------3-----------------3-----------------2-----------------
E|--1-----------------1-----------------------------------3-----------------

E|--0-----------------1-----------------
B|--1-----------------0-----------------
G|--0-----------------0-----------------
D|--2-----------------0-----------------
A|--3-----------------2-----------------
E|--------------------3-----------------

Guitar Tabs for Hallelujah By Leonard Cohen



Intro

E|--------------0-----------------0-----------------0-----------------0-----
B|-----------1-----------------1-----------------1-----------------1--------
G|--------0-----------------2-----------------0-----------------2-----------
D|-----2-----------------2-----------------2-----------------2--------------
A|--3-----------------0-----------------3-----------------0-----------------
E|--------------------------------------------------------------------------

Verse 1: 
I've heard their war a secret chord that David played and it pleased the Lord,
E|--------------0-----------------0-----------------0-----------------0-----
B|-----------1-----------------1-----------------1-----------------1--------
G|--------0-----------------2-----------------0-----------------2-----------
D|-----2-----------------2-----------------2-----------------2--------------
A|--3-----------------0-----------------3-----------------0-----------------
E|--------------------------------------------------------------------------
But you don't really care for music do you
E|-----------------1-----------------3--------------0-----------------0-----
B|--------------1-----------------0--------------1-----------------1--------
G|-----------2-----------------0--------------0-----------------2-----------
D|--------3-----------------0--------------2-----------------2--------------
A|-----3-----------------2--------------3-----------------0-----------------
E|--1-----------------3-----------------------------------------------------
 It goes like this the fourth, the fifth, The minor fall, the major lift
E|--------------0-----------------------------------0--------------------1--
B|-----------1-----------------------------------1--------------------1-----
G|--------0-----------------------------------0--------------------2--------
D|-----2--------------------3--------0-----2--------------------3-----------
A|--3--------------------3--------2-----3--------------------3--------------
E|--------------------1--------3--------------------------1-----------------
 The Baffled King composing Hallelujah
E|-----------------3-----------------0--------------0-----
B|--------------0-----------------0--------------1--------
G|-----------0-----------------0--------------2-----------
D|--------0-----------------2--------------2--------------
A|-----2-----------------2--------------0-----------------
E|--3-----------------0-----------------------------------

Chorus
 Hallelujah,                               Hallelujah,
E|-----------------1-----------------1--------------0-----------------0-----
B|--------------1-----------------1--------------1-----------------1--------
G|-----------2-----------------2--------------2-----------------2-----------
D|--------3-----------------3--------------2-----------------2--------------
A|-----3-----------------3--------------0-----------------0-----------------
E|--1-----------------1-----------------------------------------------------
 Hallelujah,                               Hallelujah,
E|-----------------1-----------------1--------------0--------------------1--
B|--------------1-----------------1--------------1--------------------0-----
G|-----------2-----------------2--------------0--------------------0--------
D|--------3-----------------3--------------2--------------------0-----------
A|-----3-----------------3--------------3--------------------2--------------
E|--1-----------------1-----------------------------------3-----------------

E|--------------0--------------------1--
B|-----------1--------------------0-----
G|--------0--------------------0--------
D|-----2--------------------0-----------
A|--3--------------------2--------------
E|--------------------3-----------------

Verse 2:
Your faith was strong but you needed proof you saw her bathing on the roof
E|--------------0-----------------0-----------------0-----------------0-----
B|-----------1-----------------1-----------------1-----------------1--------
G|--------0-----------------2-----------------0-----------------2-----------
D|-----2-----------------2-----------------2-----------------2--------------
A|--3-----------------0-----------------3-----------------0-----------------
E|--------------------------------------------------------------------------
Her beauty in the moonligh overthrew you
E|-----------------1-----------------3--------------0-----------------0-----
B|--------------1-----------------0--------------1-----------------1--------
G|-----------2-----------------0--------------0-----------------2-----------
D|--------3-----------------0--------------2-----------------2--------------
A|-----3-----------------2--------------3-----------------0-----------------
E|--1-----------------3-----------------------------------------------------
  She tied you to a kitchen chair she broke your thromne, she cut your hair
E|--------------0-----------------------------------0--------------------1--
B|-----------1-----------------------------------1--------------------1-----
G|--------0-----------------------------------0--------------------2--------
D|-----2--------------------3--------0-----2--------------------3-----------
A|--3--------------------3--------2-----3--------------------3--------------
E|--------------------1--------3--------------------------1-----------------
 And from your lips she drew the hallelujah
E|-----------------3-----------------0--------------0-----
B|--------------0-----------------0--------------1--------
G|-----------0-----------------0--------------2-----------
D|--------0-----------------2--------------2--------------
A|-----2-----------------2--------------0-----------------
E|--3-----------------0-----------------------------------

Chorus
 Hallelujah,                               Hallelujah,
E|-----------------1-----------------1--------------0-----------------0-----
B|--------------1-----------------1--------------1-----------------1--------
G|-----------2-----------------2--------------2-----------------2-----------
D|--------3-----------------3--------------2-----------------2--------------
A|-----3-----------------3--------------0-----------------0-----------------
E|--1-----------------1-----------------------------------------------------
 Hallelujah,                               Hallelujah,
E|-----------------1-----------------1--------------0--------------------1--
B|--------------1-----------------1--------------1--------------------0-----
G|-----------2-----------------2--------------0--------------------0--------
D|--------3-----------------3--------------2--------------------0-----------
A|-----3-----------------3--------------3--------------------2--------------
E|--1-----------------1-----------------------------------3-----------------

E|--------------0--------------------1--
B|-----------1--------------------0-----
G|--------0--------------------0--------
D|-----2--------------------0-----------
A|--3--------------------2--------------
E|--------------------3-----------------

Verse 3:
Maybe I've been here before I know this room, I've walked this floor
E|--------------0-----------------0-----------------0-----------------0-----
B|-----------1-----------------1-----------------1-----------------1--------
G|--------0-----------------2-----------------0-----------------2-----------
D|-----2-----------------2-----------------2-----------------2--------------
A|--3-----------------0-----------------3-----------------0-----------------
E|--------------------------------------------------------------------------
I used to live alone before I knew you
E|-----------------1-----------------3--------------0-----------------0-----
B|--------------1-----------------0--------------1-----------------1--------
G|-----------2-----------------0--------------0-----------------2-----------
D|--------3-----------------0--------------2-----------------2--------------
A|-----3-----------------2--------------3-----------------0-----------------
E|--1-----------------3-----------------------------------------------------
   I've seen your flag on the marble arch Love is not a victory march
E|--------------0-----------------------------------0--------------------1--
B|-----------1-----------------------------------1--------------------1-----
G|--------0-----------------------------------0--------------------2--------
D|-----2--------------------3--------0-----2--------------------3-----------
A|--3--------------------3--------2-----3--------------------3--------------
E|--------------------1--------3--------------------------1-----------------
  It's a cold and it's a broken hallelujah
E|-----------------3-----------------0--------------0-----
B|--------------0-----------------0--------------1--------
G|-----------0-----------------0--------------2-----------
D|--------0-----------------2--------------2--------------
A|-----2-----------------2--------------0-----------------
E|--3-----------------0-----------------------------------

Chorus
 Hallelujah,                               Hallelujah,
E|-----------------1-----------------1--------------0-----------------0-----
B|--------------1-----------------1--------------1-----------------1--------
G|-----------2-----------------2--------------2-----------------2-----------
D|--------3-----------------3--------------2-----------------2--------------
A|-----3-----------------3--------------0-----------------0-----------------
E|--1-----------------1-----------------------------------------------------
 Hallelujah,                               Hallelujah,
E|-----------------1-----------------1--------------0--------------------1--
B|--------------1-----------------1--------------1--------------------0-----
G|-----------2-----------------2--------------0--------------------0--------
D|--------3-----------------3--------------2--------------------0-----------
A|-----3-----------------3--------------3--------------------2--------------
E|--1-----------------1-----------------------------------3-----------------

E|--------------0--------------------1--
B|-----------1--------------------0-----
G|--------0--------------------0--------
D|-----2--------------------0-----------
A|--3--------------------2--------------
E|--------------------3-----------------

Verse 4:
There was a time when you let me know what's real and going on below
E|--------------0-----------------0-----------------0-----------------0-----
B|-----------1-----------------1-----------------1-----------------1--------
G|--------0-----------------2-----------------0-----------------2-----------
D|-----2-----------------2-----------------2-----------------2--------------
A|--3-----------------0-----------------3-----------------0-----------------
E|--------------------------------------------------------------------------
 But now you never show it to me do you
E|-----------------1-----------------3--------------0-----------------0-----
B|--------------1-----------------0--------------1-----------------1--------
G|-----------2-----------------0--------------0-----------------2-----------
D|--------3-----------------0--------------2-----------------2--------------
A|-----3-----------------2--------------3-----------------0-----------------
E|--1-----------------3-----------------------------------------------------
 Remember when I moved in you the Holy Dark was moving too
E|--------------0-----------------------------------0--------------------1--
B|-----------1-----------------------------------1--------------------1-----
G|--------0-----------------------------------0--------------------2--------
D|-----2--------------------3--------0-----2--------------------3-----------
A|--3--------------------3--------2-----3--------------------3--------------
E|--------------------1--------3--------------------------1-----------------
 And every breath we drew was hallelujah
E|-----------------3-----------------0--------------0-----
B|--------------0-----------------0--------------1--------
G|-----------0-----------------0--------------2-----------
D|--------0-----------------2--------------2--------------
A|-----2-----------------2--------------0-----------------
E|--3-----------------0-----------------------------------

Chorus
 Hallelujah,                               Hallelujah,
E|-----------------1-----------------1--------------0-----------------0-----
B|--------------1-----------------1--------------1-----------------1--------
G|-----------2-----------------2--------------2-----------------2-----------
D|--------3-----------------3--------------2-----------------2--------------
A|-----3-----------------3--------------0-----------------0-----------------
E|--1-----------------1-----------------------------------------------------
 Hallelujah,                               Hallelujah,
E|-----------------1-----------------1--------------0--------------------1--
B|--------------1-----------------1--------------1--------------------0-----
G|-----------2-----------------2--------------0--------------------0--------
D|--------3-----------------3--------------2--------------------0-----------
A|-----3-----------------3--------------3--------------------2--------------
E|--1-----------------1-----------------------------------3-----------------

E|--------------0--------------------1--
B|-----------1--------------------0-----
G|--------0--------------------0--------
D|-----2--------------------0-----------
A|--3--------------------2--------------
E|--------------------3-----------------

Verse 5:
Maybe there's a God above and all I ever learned from love
E|--------------0-----------------0-----------------0-----------------0-----
B|-----------1-----------------1-----------------1-----------------1--------
G|--------0-----------------2-----------------0-----------------2-----------
D|-----2-----------------2-----------------2-----------------2--------------
A|--3-----------------0-----------------3-----------------0-----------------
E|--------------------------------------------------------------------------
Was how to shoot at someone who outdrew you
E|-----------------1-----------------3--------------0-----------------0-----
B|--------------1-----------------0--------------1-----------------1--------
G|-----------2-----------------0--------------0-----------------2-----------
D|--------3-----------------0--------------2-----------------2--------------
A|-----3-----------------2--------------3-----------------0-----------------
E|--1-----------------3-----------------------------------------------------
 It's not a cry you hear at night it's not somebody who's seen the light
E|--------------0-----------------------------------0--------------------1--
B|-----------1-----------------------------------1--------------------1-----
G|--------0-----------------------------------0--------------------2--------
D|-----2--------------------3--------0-----2--------------------3-----------
A|--3--------------------3--------2-----3--------------------3--------------
E|--------------------1--------3--------------------------1-----------------
 It's a cold and it's a broken hallelujah
E|-----------------3-----------------0--------------0-----
B|--------------0-----------------0--------------1--------
G|-----------0-----------------0--------------2-----------
D|--------0-----------------2--------------2--------------
A|-----2-----------------2--------------0-----------------
E|--3-----------------0-----------------------------------

Chorus
 Hallelujah,                               Hallelujah,
E|-----------------1-----------------1--------------0-----------------0-----
B|--------------1-----------------1--------------1-----------------1--------
G|-----------2-----------------2--------------2-----------------2-----------
D|--------3-----------------3--------------2-----------------2--------------
A|-----3-----------------3--------------0-----------------0-----------------
E|--1-----------------1-----------------------------------------------------
 Hallelujah,                               Hallelujah,
E|-----------------1-----------------1--------------0--------------------1--
B|--------------1-----------------1--------------1--------------------0-----
G|-----------2-----------------2--------------0--------------------0--------
D|--------3-----------------3--------------2--------------------0-----------
A|-----3-----------------3--------------3--------------------2--------------
E|--1-----------------1-----------------------------------3-----------------

E|--------------0--------------------1--
B|-----------1--------------------0-----
G|--------0--------------------0--------
D|-----2--------------------0-----------
A|--3--------------------2--------------
E|--------------------3-----------------
 Hallelujah,                               Hallelujah,
E|-----------------1-----------------1--------------0-----------------0-----
B|--------------1-----------------1--------------1-----------------1--------
G|-----------2-----------------2--------------2-----------------2-----------
D|--------3-----------------3--------------2-----------------2--------------
A|-----3-----------------3--------------0-----------------0-----------------
E|--1-----------------1-----------------------------------------------------
 Hallelujah,                               Hallelujah,
E|-----------------1-----------------1--------------0--------------------1--
B|--------------1-----------------1--------------1--------------------0-----
G|-----------2-----------------2--------------0--------------------0--------
D|--------3-----------------3--------------2--------------------0-----------
A|-----3-----------------3--------------3--------------------2--------------
E|--1-----------------1-----------------------------------3-----------------

E|--------------0--------------------1--
B|-----------1--------------------0-----
G|--------0--------------------0--------
D|-----2--------------------0-----------
A|--3--------------------2--------------
E|--------------------3-----------------
tabs and chords, guitar tabs, music transcription, music technology, deep learning, music information retrieval, transcribe into tabs & chords, chordify, music renditions, songsterr, reverbnation, tabulature, bollywood chords, ultimate guitar, yousician, guitar lessons, acoustic guitar, electric guitar, guitar tuner, 911 tabs