Guitar Tabs for Lenny Kravitz - Again

Lenny Kravitz - Again

Intro
E|--------------0--------------------------0--------------------------0-----------0--------------0---0h-2p0-----
B|--------0---------0h-2p0-----------0---------0h-2p0-----------0---------0h-2p0--3--------3-----------------3--
G|-----2-----2--------------2-----2-----2--------------2-----2-----2--------------2-----2-----2-----------------
D|--------------------------------------------------------------------------------0--0--------------------------
A|--0-----------------------------------------------------------------------------------------------------------
E|-----------------------------2--------------------------0-----------------------------------------------------

1st Verse

   D9                       E  F#
       I've been searching for you
E|--0-----------------------0--2--
B|--3-----------------------0--2--
G|--2-----------------------1--3--
D|--0-----------------------2--4--
A|--------------------------2--4--
E|--------------------------0--2--

    D9                E        F#
      I heard a cry within my soul
E|--0-----------------0--------2--
B|--3-----------------0--------2--
G|--2-----------------1--------3--
D|--0-----------------2--------4--
A|--------------------2--------4--
E|--------------------0--------2--

    D9                                        E     F#
       I've never had a yearning quite like this before
E|--0-----------------------------------------0-----2--
B|--3-----------------------------------------0-----2--
G|--2-----------------------------------------1-----3--
D|--0-----------------------------------------2-----4--
A|--------------------------------------------2-----4--
E|--------------------------------------------0-----2--

            D9                    E       F#
Now here you are walking right through my door
E|-----------0--------------------0--------2--
B|-----------3--------------------0--------2--
G|-----------2--------------------1--------3--
D|-----------0--------------------2--------4--
A|--------------------------------2--------4--
E|--------------------------------0--------2--

Chorus

   A9          F#m                   E
    All of my life, where have you been
E|--0-----------2--------------------0--
B|--0-----------2--------------------0--
G|--2-----------2--------------------1--
D|--2-----------4--------------------2--
A|--0-----------4--------------------2--
E|--------------2--------------------0--
             D
I wonder if I'll ever see you again
E|-----------2-----------------------
B|-----------3-----------------------
G|-----------2-----------------------
D|-----------0-----------------------
A|-----------------------------------
E|-----------------------------------

    A9                  F#m                   E  
        And if that day comes, I know we could win
E|--0--------------------2--------------------0--
B|--0--------------------2--------------------0--
G|--2--------------------2--------------------1--
D|--2--------------------4--------------------2--
A|--0--------------------4--------------------2--
E|-----------------------2--------------------0--
             
             D
I wonder if I'll ever see you again
E|-----------2-----------------------
B|-----------3-----------------------
G|-----------2-----------------------
D|-----------0-----------------------
A|-----------------------------------
E|-----------------------------------

2nd Verse

   D9                       E  F#
          A sacred gift of heaven
E|--0-----------------------0--2--
B|--3-----------------------0--2--
G|--2-----------------------1--3--
D|--0-----------------------2--4--
A|--------------------------2--4--
E|--------------------------0--2--

   D9                    E     F#
      For better, worse, wherever
E|--0--------------------0-----2--
B|--3--------------------0-----2--
G|--2--------------------1-----3--
D|--0--------------------2-----4--
A|-----------------------2-----4--
E|-----------------------0-----2--

    D9                         E         F#
And I would never let somebody break you down
E|--0--------------------------0---------2--
B|--3--------------------------0---------2--
G|--2--------------------------1---------3--
D|--0--------------------------2---------4--
A|-----------------------------2---------4--
E|-----------------------------0---------2--

             D9                   E  F#
Or take your crown                never 
E|-----------0--------------------0--2--
B|-----------3--------------------0--2--
G|-----------2--------------------1--3--
D|-----------0--------------------2--4--
A|--------------------------------2--4--
E|--------------------------------0--2--

2nd Chorus

   A9          F#m                   E
    All of my life, where have you been
E|--0-----------2--------------------0--
B|--0-----------2--------------------0--
G|--2-----------2--------------------1--
D|--2-----------4--------------------2--
A|--0-----------4--------------------2--
E|--------------2--------------------0--
             D
I wonder if I'll ever see you again
E|-----------2-----------------------
B|-----------3-----------------------
G|-----------2-----------------------
D|-----------0-----------------------
A|-----------------------------------
E|-----------------------------------

    A9                  F#m                   E  
        And if that day comes, I know we could win
E|--0--------------------2--------------------0--
B|--0--------------------2--------------------0--
G|--2--------------------2--------------------1--
D|--2--------------------4--------------------2--
A|--0--------------------4--------------------2--
E|-----------------------2--------------------0--
             
             D
I wonder if I'll ever see you again
E|-----------2-----------------------
B|-----------3-----------------------
G|-----------2-----------------------
D|-----------0-----------------------
A|-----------------------------------
E|-----------------------------------

Tension/Bridge

      Am
I've searched through time, I've always known
E|-----0--------------------------------------
B|-----1--------------------------------------
G|-----2--------------------------------------
D|-----2--------------------------------------
A|-----0--------------------------------------
E|--------------------------------------------

       A9
 That you were there upon your throne
E|-----0-----------------------------
B|-----0-----------------------------
G|-----2-----------------------------
D|-----2-----------------------------
A|-----0-----------------------------
E|-----------------------------------
  
      Am
    A lonely queen without her king
E|-----0--------------------------------------
B|-----1--------------------------------------
G|-----2--------------------------------------
D|-----2--------------------------------------
A|-----0--------------------------------------
E|--------------------------------------------

       A9
 I've longed for you, my love forever
E|-----0-----------------------------
B|-----0-----------------------------
G|-----2-----------------------------
D|-----2-----------------------------
A|-----0-----------------------------
E|-----------------------------------

Solo
    A       F#m       E        D
E|--0--------2--------0--------2--
B|--2--------2--------0--------3--
G|--2--------2--------1--------2--  2x
D|--2--------4--------2--------0--
A|--0--------4--------2-----------
E|-----------2--------0-----------

3rd Chorus

Played 2x

   A9          F#m                   E
    All of my life, where have you been
E|--0-----------2--------------------0--
B|--0-----------2--------------------0--
G|--2-----------2--------------------1--
D|--2-----------4--------------------2--
A|--0-----------4--------------------2--
E|--------------2--------------------0--
             D
I wonder if I'll ever see you again
E|-----------2-----------------------
B|-----------3-----------------------
G|-----------2-----------------------
D|-----------0-----------------------
A|-----------------------------------
E|-----------------------------------

    A9                  F#m                   E  
        And if that day comes, I know we could win
E|--0--------------------2--------------------0--
B|--0--------------------2--------------------0--
G|--2--------------------2--------------------1--
D|--2--------------------4--------------------2--
A|--0--------------------4--------------------2--
E|-----------------------2--------------------0--
             
             D
I wonder if I'll ever see you again
E|-----------2-----------------------
B|-----------3-----------------------
G|-----------2-----------------------
D|-----------0-----------------------
A|-----------------------------------
E|-----------------------------------

Outro

             D
I wonder if I'll ever see you again
E|-----------2-----------------------
B|-----------3-----------------------
G|-----------2-----------------------   Fade Out...
D|-----------0-----------------------
A|-----------------------------------
E|-----------------------------------
             
tabs and chords, guitar tabs, music transcription, music technology, deep learning, music information retrieval, transcribe into tabs & chords, chordify, music renditions, songsterr, reverbnation, tabulature, bollywood chords, ultimate guitar, yousician, guitar lessons, acoustic guitar, electric guitar, guitar tuner, 911 tabs