Bass Tabs for Lenny Kravitz - Again

Lenny Kravitz - Again

Intro (This pattern in all the other parts)
G|-----------------------------------------------------------------------------------------------
D|-----------------------------------------------------------------------------------------------
A|-----------------------------------------------------------------------------------------------
E|--5-----5--5--5-----5--5--5-----5--5--5-----5-----2-----2--2--2-----2--2--2-----2--2--2-----2--

G|-----------------------------------------------
D|-----------------------------------------------
A|--7-----7--7--7-----7--7--7-----7--7--7-----5--
E|-----------------------------------------------

Verse
G|-----------------------------------------------------------------------
D|-----------------------------------------------------------------------
A|--5-----7-----9-----5-----7-----9-----5-----7-----9-----5--------------
E|--------------------------------------------------------------0-----2--

Chorus
G|-----------------------------------------------------------
D|-----------------------------------------------------------
A|--------------7-----5-----------------7-----5--------------
E|--5-----2-----------------5-----2--------------2--3--4--5--

Solo
G|--------------------------------------------------------------
D|--------------------------------------------------------------
A|--------------7-----5--------------------9--7-----5-----------
E|--5-----2-----------------5--4-----2-----------------3--4--5--


tabs and chords, guitar tabs, music transcription, music technology, deep learning, music information retrieval, transcribe into tabs & chords, chordify, music renditions, songsterr, reverbnation, tabulature, bollywood chords, ultimate guitar, yousician, guitar lessons, acoustic guitar, electric guitar, guitar tuner, 911 tabs