Guitar Tabs for Last Bus Outro

(/) Slide Up  (\) Slide Down  (h) Hammer On  (p) Pull Off  (b) Bend (r) Release (v) Vibrato

Tabs for Song : 

Song lyrics here
E|-----------------------------------------------------------------------------------
B|-----------------------------------------------------------------------------------
G|-----------------------------------------------------------------------------------
D|-----------------------------------------------------------------------------------
A|--9--9--9--9--9--9--9--9--9--10-10-10-10-10-10-10-10-10-12-12-12-12-12-12-12-12-12-
E|--0--------0--------0--------0--------0--------0--------0--------0--------0--------

Song lyrics here
E|-----------------------------------------------------------------------------------
B|-----------------------------------------------------------------------------------
G|-----------------------------------------------------------------------------------
D|-----------------------------------------------------------------------------------
A|--9--9--9--9--9--9--9--9--9--10-10-10-10-10-10-10-10-10-12-12-12-12-12-12-12-12-12-
E|--0--------0--------0--------0--------0--------0--------0--------0--------0--------

Add more lines by placing cursor below and adding notes



E|--------------------------------------------------
B|--------------------------------------------------
G|--------------------------------------------------
D|--------------------------------------------------
A|--9--------------10-------------12-------------9--
E|--------------------------------------------------



E|-----
B|-----
G|-----
D|-----
A|--7--
E|-----

tabs and chords, guitar tabs, music transcription, music technology, deep learning, music information retrieval, transcribe into tabs & chords, chordify, music renditions, songsterr, reverbnation, tabulature, bollywood chords, ultimate guitar, yousician, guitar lessons, acoustic guitar, electric guitar, guitar tuner, 911 tabs