Guitar Tabs for Lank 80s

(/) Slide Up  (\) Slide Down  (h) Hammer On  (p) Pull Off  (b) Bend (r) Release (v) Vibrato (x) Muted

Tabs & Chords
BPM : 110.0
Check Track 2 for Chord Positions 

       C     Em                C                    Em       C                    C              
E|-----------------------------8-----------------------------0--------------------------------0--
B|-----------------------8--------------------------------------------------------8--8--8--------
G|-----------0-----0--0-----7--------------0--0--------------------10-10-------------------------
D|-----------------------------------------------------------------------------------------------
A|-----7--------------------------------------------7--------------------------------------------
E|-----------------------------------3-----------------------------------------------------------

                Em       D        C              G     Em          C                 G        
E|-----------------------------------------------------10----10----10----7--------------------
B|--------0-----------------------------------8--------------------------------------8--------
G|--7-----------7--7-----7--------0-----0--------7-----------------------------7--------7-----
D|-----------------------------------------10-------------------------------------------------
A|--------------------------------------------------------------------------------------------
E|--------------------------------------------------0-----------------------------------------

       C        Em 
E|-----------------
B|-----------------
G|-----7-----------
D|-----------------
A|-----------------
E|--------0-----7--

Guitar Tabs for Lank 80s






       C     Em                C                    Em       C                    C              
E|-----0-----0-----------------0--------------------0--------0--------------------0--------------
B|-----1-----0-----------------1--------------------0--------1--------------------1--------------
G|-----0-----0-----------------0--------------------0--------0--------------------0--------------
D|-----2-----2-----------------2--------------------2--------2--------------------2--------------
A|-----3-----2-----------------3--------------------2--------3--------------------3--------------
E|-----------0--------------------------------------0--------------------------------------------

                Em       D        C              G     Em          C                 G        
E|--------------0--------2--------0--------------3-----0-----------0-----------------3--------
B|--------------0--------3--------1--------------3-----0-----------1-----------------3--------
G|--------------0--------2--------0--------------4-----0-----------0-----------------4--------
D|--------------2--------0--------2--------------5-----2-----------2-----------------5--------
A|--------------2-----------------3--------------5-----2-----------3-----------------5--------
E|--------------0--------------------------------3-----0-----------------------------3--------

       C        Em 
E|-----0--------0--
B|-----1--------0--
G|-----0--------0--
D|-----2--------2--
A|-----3--------2--
E|--------------0--

tabs and chords, guitar tabs, music transcription, music technology, deep learning, music information retrieval, transcribe into tabs & chords, chordify, music renditions, songsterr, reverbnation, tabulature, bollywood chords, ultimate guitar, yousician, guitar lessons, acoustic guitar, electric guitar, guitar tuner, 911 tabs