Ukulele Tabs for Lamp Essence - Sounds To Be Looped Forever - Play At Tempo 6

(/) Slide Up  (\) Slide Down  (h) Hammer On  (p) Pull Off  (b) Bend (r) Release (v) Vibrato (x) Muted

Tabs for Song : 

Song lyrics here


Song lyrics here
A|--0-----0-----0-----0-----0-----0-----0-----0-----2-----2-----2-----2-----2-----2-----2-----2-----
E|-----0-----0-----0-----0-----0-----0-----0-----0-----2-----2-----2-----2-----2-----2-----2-----2--
C|--0-----------0-----------0-----------0-----------2-----------2-----------2-----------2-----------
G|--------0-----------0-----------0-----------0-----------0-----------0-----------0-----------0-----

Paste any tab in acousterr's tab maker and we'll play it !!!
Now supports capo and sound effects for vibrato/pull-off/hammer/bends/mutes etc !!! Checkout help section


Guitar Tabs for Lamp Essence - Sounds To Be Looped Forever - Play At Tempo 6








E|--0-----0-----0-----0-----0-----0-----0-----0-----2-----2-----2-----2-----2-----2-----2-----2-----
B|-----0-----0-----0-----0-----0-----0-----0-----0-----2-----2-----2-----2-----2-----2-----2-----2--
G|--0-----------0-----------0-----------0-----------2-----------2-----------2-----------2-----------
D|--------0-----------0-----------0-----------0-----------0-----------0-----------0-----------0-----
A|--------------------------------------------------------------------------------------------------
E|--------------------------------------------------------------------------------------------------

Bass Tabs for Lamp Essence - Sounds To Be Looped Forever - Play At Tempo 6








G|--------------------------------------------------------------------------------------------------
D|--0--0--0--0--0--0--0--0--0--0--0--0--0--0--0--0--2--2--2--2--2--2--2--2--2--2--2--2--2--2--2--2--
A|--------------------------------------------------------------------------------------------------
E|--------------------------------------------------------------------------------------------------

Mandolin Tabs for Lamp Essence - Sounds To Be Looped Forever - Play At Tempo 6








E|--------------------------------------------------------------------------------------------------
A|--0--0--0--0--0--0--0--0--0--0--0--0--0--0--0--0--2--2--2--2--2--2--2--2--2--2--2--2--2--2--2--2--
D|--------------------------------------------------------------------------------------------------
G|--------------------------------------------------------------------------------------------------

tabs and chords, guitar tabs, music transcription, music technology, deep learning, music information retrieval, transcribe into tabs & chords, chordify, music renditions, songsterr, reverbnation, tabulature, bollywood chords, ultimate guitar, yousician, guitar lessons, acoustic guitar, electric guitar, guitar tuner, 911 tabs