Guitar Tabs for Forever

(/) Slide Up  (\) Slide Down  (h) Hammer On  (p) Pull Off  (b) Bend (r) Release (v) Vibrato (x) Muted

Tabs & Chords
BPM : 144.0
Check Track 2 for Chord Positions 

    D#                      Cm                                     Fm                   G#       
E|-----------------------------------------------------------------------------3--4--------------
B|--------------4--------------3--4-----3--------------------------------------------------------
G|--------3-----------3-----5-----------------5-----3--5-----0-----------5--------------------5--
D|-----------------------------------------------------------------3-----------------------------
A|--6-----------------------------------------------------------------------------------6--------
E|-----------------------------------------------------------------------------------------------

             A#                   D#          A#             Cm    Fm                G#       
E|--------------------------------------------------------------------------------------------
B|-----4-----6-----6--------------------------------0-----------------------------------------
G|--------------------------------------3--------------------0-----------------0-----------0--
D|-----------------------6--7-----6-----------7--------6--------------3-----3--------6--------
A|-----------------------------------------------------------------6--------------------------
E|--------------------------------------------------------------------------------------------

                      A#                Gm    A#       
E|-----------------------------------------------------
B|--------------------------------------------6--------
G|--0--------------------0--------0-----3-----------3--
D|--------6-----0-----4--------6-----------------------
A|-----------------------------------------------------
E|-----------------------------------------------------

Guitar Tabs for Forever






    D#                      Cm                                     Fm                   G#       
E|--6-----------------------3--------------------------------------1--------------------4--------
B|--8-----------------------4--------------------------------------1--------------------4--------
G|--8-----------------------5--------------------------------------1--------------------5--------
D|--8-----------------------5--------------------------------------3--------------------6--------
A|--6-----------------------3--------------------------------------3--------------------6--------
E|-----------------------------------------------------------------1--------------------4--------

             A#                   D#          A#             Cm    Fm                G#       
E|-----------1--------------------6-----------1--------------3-----1-----------------4--------
B|-----------3--------------------8-----------3--------------4-----1-----------------4--------
G|-----------3--------------------8-----------3--------------5-----1-----------------5--------
D|-----------3--------------------8-----------3--------------5-----3-----------------6--------
A|-----------1--------------------6-----------1--------------3-----3-----------------6--------
E|-----------------------------------------------------------------1-----------------4--------

                      A#                Gm    A#       
E|--------------------1-----------------3-----1--------
B|--------------------3-----------------3-----3--------
G|--------------------3-----------------3-----3--------
D|--------------------3-----------------5-----3--------
A|--------------------1-----------------5-----1--------
E|--------------------------------------3--------------

tabs and chords, guitar tabs, music transcription, music technology, deep learning, music information retrieval, transcribe into tabs & chords, chordify, music renditions, songsterr, reverbnation, tabulature, bollywood chords, ultimate guitar, yousician, guitar lessons, acoustic guitar, electric guitar, guitar tuner, 911 tabs