Guitar Tabs for Lady Gaga, Bradley Cooper - Shallow (voice Line)

Lady Gaga, Bradley Cooper - Shallow (Voice Line)

Verse

   Tell me something, girl
E|-----------------------
B|-----------------------
G|--9--9--9-----7--------
D|--------------------9--
A|-----------------------
E|-----------------------

Are you happy in this modern world?
E|-----------------------------
B|-----------------------------
G|-----5--5--5--5--5--5--4--2--
D|--5--------------------------
A|-----------------------------
E|-----------------------------

    Or do you  need more?
E|-----------------------
B|-----------------------
G|--9--9--9-----7--------
D|--------------------9--
A|-----------------------
E|-----------------------

    Is there something else you’re searching for?
E|-----------------------------------------------
B|-----------------------------------------------
G|-----5-----5--5-----5-----5-----5-----4-----2--
D|--5--------------------------------------------
A|-----------------------------------------------
E|-----------------------------------------------

   I’m falling
E|-----------
B|-----------
G|--0--2--4--
D|-----------
A|-----------
E|-----------

   In all the good times
E|-----------------------
B|-----------------------
G|--7--7--7-----7--5-----
D|-----------------------
A|-----------------------
E|-----------------------

    I find myself longing  for   change
E|-----------------------------------
B|-----------------------------------
G|--4--2--4--2--4--2--0------2/---4--
D|-----------------------------------
A|-----------------------------------
E|-----------------------------------

And in the bad times I fear myself
E|--------------------------------
B|--------------------------------
G|--7--7--7--7--5--4--2--4--2-----
D|--------------------------------
A|--------------------------------
E|--------------------------------


  Tell me something, boy
E|-----------------------
B|-----------------------
G|--9--9--9-----7--------
D|--------------------9--
A|-----------------------
E|-----------------------

   Aren’t you   tired trying to fill that void?
E|--------------------------------------------
B|--------------------------------------------
G|--------5-----5-----5-----5--5--5--4-----2--
D|--5-----------------------------------------
A|--------------------------------------------
E|--------------------------------------------

Or do you need more?
E|-----------------------
B|-----------------------
G|--9--9--9-----7--------
D|--------------------9--
A|-----------------------
E|-----------------------

   Ain’t it hard   keeping  it so hardcore?
E|-----------------------------------------
B|-----------------------------------------
G|--------5--5-----5--5-----5--5--4--2-----
D|--5--------------------------------------
A|-----------------------------------------
E|-----------------------------------------

  I’m falling
E|-----------
B|-----------
G|--0--2--4--
D|-----------
A|-----------
E|-----------

In all the good times
E|-----------------------
B|-----------------------
G|--7--7--7-----7--5-----
D|-----------------------
A|-----------------------
E|-----------------------

    I find myself longing   for change
E|-----------------------------------
B|-----------------------------------
G|--4--2--4--2--4--2--0------2/---4--
D|-----------------------------------
A|-----------------------------------
E|-----------------------------------

  And in the bad times  I fear myself
E|--------------------------------------
B|--------------------------------------
G|--7--7--7--7--5--------4--2--4--2-----
D|--------------------------------------
A|--------------------------------------
E|--------------------------------------

Chorus

I’m off the deep end, watch as I dive in
E|--8--8--8--8--7-----5-----5--7--5--3--
B|--------------------------------------
G|--------------------------------------
D|--------------------------------------
A|--------------------------------------
E|--------------------------------------

I’ll never meet the ground
E|--7--7--7--10----------
B|--------------7--8--12-
G|-----------------------
D|-----------------------
A|-----------------------
E|-----------------------

   Crash through   the surface, where they can’t hurt us
E|--8-----8--------8-----8--7-----5-----5--7-----5--3--
B|-----------------------------------------------------
G|-----------------------------------------------------
D|-----------------------------------------------------
A|-----------------------------------------------------
E|-----------------------------------------------------

   We’re far from the shallow now
E|--------------------------------
B|--------8--8-----8--8-----------
G|--7--------------------7--------
D|-----------------------------9--
A|--------------------------------
E|--------------------------------

   In the shallow, shallow
E|--------------------------
B|--8--8--8--8--7--7--8--7--
G|--------------------------
D|--------------------------
A|--------------------------
E|--------------------------

   In the shallow, shallow
E|-----------------------------
B|--8--8--8--8--8--7--7--5--5--
G|-----------------------------
D|-----------------------------
A|-----------------------------
E|-----------------------------

    In the shallow, shallow
E|--------------------------
B|--8--8--8--8--7--7--8--7--
G|--------------------------
D|--------------------------
A|--------------------------
E|--------------------------

   We’re far from the shallow now
E|--------------------------------
B|--------8--8-----8--8-----------
G|--7--------------------7--------
D|-----------------------------9--
A|--------------------------------
E|--------------------------------
tabs and chords, guitar tabs, music transcription, music technology, deep learning, music information retrieval, transcribe into tabs & chords, chordify, music renditions, songsterr, reverbnation, tabulature, bollywood chords, ultimate guitar, yousician, guitar lessons, acoustic guitar, electric guitar, guitar tuner, 911 tabs