Guitar Tabs for Lady Gaga & Bradley Cooper (a Star Is Born) - Shallow

Lady Gaga & Bradley Cooper (A Star Is Born) - Shallow

Intro

   Em7     D/F#    G                 C                          G        D       
E|-----------------------------------------------------0-----------3---------0h-2p0--------
B|--------3--------3--3--------------------1--3-----------3--------3-----3-----------3-----
G|-----------0-----2--0-----------------0--------0-----------------0-----2--------------2--
D|-----------------------------------------------------------------------0-----------------
A|-----------------------------------3--------------3--------------------------------------
E|--0--0--------2-----3-----------------------------------------3--------------------------

   Em7     D/F#    G
E|-----------------------
B|--------3--------3--3--
G|-----------0-----2--0--
D|-----------------------
A|-----------------------
E|--0--0--------2-----3--

1st Verse

  Em7         D/F#       G              C                          G        D       
      Tell me something girl            Are  you  happy in this  modern world?
E|--------------------------------------------------------0-----------3---------0h-2p0--------
B|--------3--------3-----3--------------------1--3-----------3--------3-----3-----------3-----
G|-----------0-----2-----0-----------------0--------0-----------------0-----2--------------2--
D|--------------------------------------------------------------------------0-----------------
A|--------------------------------------3--------------3--------------------------------------
E|--0--0--------2--------3-----------------------------------------3--------------------------

  Em7         D/F#       G              C                                G        D       
       Or do you need more?             Is there something else you’re searching for?
E|--------------------------------------------------------------0-----------3---------0h-2p0--------
B|--------3--------3-----3--------------------1-----3-----------------------3-----3-----------3-----
G|-----------0-----2-----0-----------------0--------------0-----------------0-----2--------------2--
D|--------------------------------------------------------------------------------0-----------------
A|--------------------------------------3--------------------3--------------------------------------
E|--0--0--------2--------3-----------------------------------------------3--------------------------

  Em7         D/F#       G              C                     G        D       
   I’m        fall  -   in              In all the good times I find myself longin
E|--------------------------------------------------------0--------3--------------
B|--------3--------3-----3--------------------1--3-----------3-----3-----3--------
G|-----------0-----2-----0-----------------0--------0--------------0-----2--------
D|-----------------------------------------------------------------------0--------
A|--------------------------------------3--------------3--------------------------
E|--0--0--------2--------3--------------------------------------3-----------------

  Em7         D/F#       G              C                          G        D       
              for      change             And in the bad times I fear myself
E|--------------------------------------------------------0-----------3--------------
B|--------3--------3-----3--------------------1--3-----------3--------3-----3--------
G|-----------0-----2-----0-----------------0--------0-----------------0-----2--------
D|--------------------------------------------------------------------------0--------
A|--------------------------------------3--------------3-----------------------------
E|--0--0--------2--------3-----------------------------------------3-----------------

E|--------------------------------------------------
B|--------3--------3--3-----------3--------3--3-----
G|-----------0-----2--0--------------0-----2--0-----
D|--------------------------------------------------
A|--------------------------------------------------
E|--0--0--------2-----3-----0--0--------2-----3----- 

2nd Verse

  Em7         D/F#       G              C                          G        D       
      Tell me something boy            Aren’t you tired tryin' to fill that void
E|--------------------------------------------------------0-----------3---------0h-2p0--------
B|--------3--------3-----3--------------------1--3-----------3--------3-----3-----------3-----
G|-----------0-----2-----0-----------------0--------0-----------------0-----2--------------2--
D|--------------------------------------------------------------------------0-----------------
A|--------------------------------------3--------------3--------------------------------------
E|--0--0--------2--------3-----------------------------------------3--------------------------

  Em7         D/F#       G              C                                G        D       
       Or do you need more?             Ain’t   it   hard   keeping it   so hardcore
E|--------------------------------------------------------------0-----------3--------2-----
B|--------3--------3-----3--------------------1-----3-----------------------3-----3-----3--
G|-----------0-----2-----0-----------------0--------------0-----------------0-----2--------
D|--------------------------------------------------------------------------------0--------
A|--------------------------------------3--------------------3-----------------------------
E|--0--0--------2--------3-----------------------------------------------3-----------------

  Em7         D/F#       G              C                     G        D       
   I’m        fall  -   in              In all the good times I find myself longin
E|--------------------------------------------------------0--------3--------------
B|--------3--------3-----3--------------------1--3-----------3-----3-----3--------
G|-----------0-----2-----0-----------------0--------0--------------0-----2--------
D|-----------------------------------------------------------------------0--------
A|--------------------------------------3--------------3--------------------------
E|--0--0--------2--------3--------------------------------------3-----------------

  Em7         D/F#       G              C                          G        D       
              for      change             And in the bad times I fear myself
E|--------------------------------------------------------0-----------3--------------
B|--------3--------3-----3--------------------1--3-----------3--------3-----3--------
G|-----------0-----2-----0-----------------0--------0-----------------0-----2--------
D|--------------------------------------------------------------------------0--------
A|--------------------------------------3--------------3-----------------------------
E|--0--0--------2--------3-----------------------------------------3-----------------

Chorus

Chorus Pattern -> D-DU-UDU

   Am                    D/F#                 G           D/F#     Em
  I’m off the deep end, watch as I dive in, I’ll never meet the ground
E|--0--------------------2--------------------3-----------2--------0--
B|--1--------------------3--------------------3-----------3--------0--
G|--2--------------------2--------------------4-----------2--------0--
D|--2--------------------0--------------------5-----------0--------2--
A|--0-----------------------------------------5--------------------2--
E|-----------------------2--------------------3-----------2--------0--
   Am                         D/F#                              G          D/F#     Em
  Crash through the surface, where they can’t hurt us, we’re far from the shallow now
E|--0--------------------------2--------------------------------3-----------2--------0--
B|--1--------------------------3--------------------------------3-----------3--------0--
G|--2--------------------------2--------------------------------4-----------2--------0--
D|--2--------------------------0--------------------------------5-----------0--------2--
A|--0-----------------------------------------------------------5--------------------2--
E|-----------------------------2--------------------------------3-----------2--------0--

Pos-Chorus

   Am                   D/F#                  G       D/F#     Em
        In the sha ha shallow                 In the sha ha sha ha llow
E|--0--------------------2--------------------3--------2--------0-----
B|--1--------------------3--------------------3--------3--------0-----
G|--2--------------------2--------------------4--------2--------0-----
D|--2--------------------0--------------------5--------0--------2-----
A|--0-----------------------------------------5-----------------2-----
E|-----------------------2--------------------3--------2--------0-----

   Am                         D/F#                              G          D/F#    Em
       In the   sha   ha   shallow                      we’re far from the shallow now
E|--0--------------------------2--------------------------------3-----------2------0--
B|--1--------------------------3--------------------------------3-----------3------0--
G|--2--------------------------2--------------------------------4-----------2------0--
D|--2--------------------------0--------------------------------5-----------0------2--
A|--0-----------------------------------------------------------5------------------2--
E|-----------------------------2--------------------------------3-----------2------0--

E|--------------0-----------------------0--------
B|-----3-----------3-----------3-----------3-----
G|--0-----0-----------0-----0-----0-----------0--
D|-----------------------------------------------
A|-----------------------------------------------
E|-----------0-----------0-----------0-----------

Tension

   Em                      Bm                       D                       A
E|-----------------0-----------------------2-----------------------2-----------------------0--------
B|--------3-----------3-----------3-----------3-----------3-----------3-----------2-----------2-----
G|-----0-----0-----------0-----4-----4-----------4-----2-----2-----------2-----2-----2-----------2--
D|--------------------------------------------------0-----------0-----------------------------------
A|--------------------------2-----------2-----------------------------------0-----------0-----------
E|--0-----------0-----------------------------------------------------------------------------------

   Em                      Bm                       D                       A
E|-----------------0-----------------------2-----------------------2-----------------------0--------
B|--------3-----------3-----------3-----------3-----------3-----------3-----------2-----------2-----
G|-----0-----0-----------0-----4-----4-----------4-----2-----2-----------2-----2-----2-----------2--
D|--------------------------------------------------0-----------0-----------------------------------
A|--------------------------2-----------2-----------------------------------0-----------0-----------
E|--0-----------0-----------------------------------------------------------------------------------

Last Chorus

   Am                    D/F#                 G           D/F#     Em
  I’m off the deep end, watch as I dive in, I’ll never meet the ground
E|--0--------------------2--------------------3-----------2--------0--
B|--1--------------------3--------------------3-----------3--------0--
G|--2--------------------2--------------------4-----------2--------0--
D|--2--------------------0--------------------5-----------0--------2--
A|--0-----------------------------------------5--------------------2--
E|-----------------------2--------------------3-----------2--------0--
   Am                         D/F#                              G          D/F#     Em
  Crash through the surface, where they can’t hurt us, we’re far from the shallow now
E|--0--------------------------2--------------------------------3-----------2--------0--
B|--1--------------------------3--------------------------------3-----------3--------0--
G|--2--------------------------2--------------------------------4-----------2--------0--
D|--2--------------------------0--------------------------------5-----------0--------2--
A|--0-----------------------------------------------------------5--------------------2--
E|-----------------------------2--------------------------------3-----------2--------0--

Pos-Chorus

   Am                   D/F#                  G       D/F#     Em
        In the sha ha shallow                 In the sha ha sha ha llow
E|--0--------------------2--------------------3--------2--------0-----
B|--1--------------------3--------------------3--------3--------0-----
G|--2--------------------2--------------------4--------2--------0-----
D|--2--------------------0--------------------5--------0--------2-----
A|--0-----------------------------------------5-----------------2-----
E|-----------------------2--------------------3--------2--------0-----

   Am                         D/F#                              G          D/F#    Em
       In the   sha   ha   shallow                      we’re far from the shallow now
E|--0--------------------------2--------------------------------3-----------2------0--
B|--1--------------------------3--------------------------------3-----------3------0--
G|--2--------------------------2--------------------------------4-----------2------0--
D|--2--------------------------0--------------------------------5-----------0------2--
A|--0-----------------------------------------------------------5------------------2--
E|-----------------------------2--------------------------------3-----------2------0--

Last Chord -> Em
tabs and chords, guitar tabs, music transcription, music technology, deep learning, music information retrieval, transcribe into tabs & chords, chordify, music renditions, songsterr, reverbnation, tabulature, bollywood chords, ultimate guitar, yousician, guitar lessons, acoustic guitar, electric guitar, guitar tuner, 911 tabs