Guitar Tabs for Kya khoob lagti ho

Tabs for Song : kya khoob lagti ho

kya khoob lagti ho
E|-----------------------------------------
B|--------1-----1--1--1--3-----3--1--------
G|--0--------------------------------3-----
D|-----------------------------------------
A|-----------------------------------------
E|-----------------------------------------

badi sunder dikhti ho
E|--------------------------------------
B|-----4--4-----4--4--3--3--1-----1-----
G|--3-----------------------------------
D|--------------------------------------
A|--------------------------------------
E|--------------------------------------

phir se kaho ,kahte raho
E|--1-----1--0--1-----1-----1--0--1-----
B|--------------------------------------
G|--------------------------------------
D|--------------------------------------
A|--------------------------------------
E|--------------------------------------

accha lagta hai
E|--1-----3-----3--1--------------
B|--------------------4--3--4-----
G|--------------------------------
D|--------------------------------
A|--------------------------------
E|--------------------------------

jeevanka her sapna ab saccha lagta hai
E|--1-----1--1--1-----3--1--------------------------------------------------
B|--------------------------4--4--4-----4-----3-----3--1--1-----1--3--1-----
G|-----------------------------------------------------------3--------------
D|--------------------------------------------------------------------------
A|--------------------------------------------------------------------------
E|--------------------------------------------------------------------------
tabs and chords, guitar tabs, music transcription, music technology, deep learning, music information retrieval, transcribe into tabs & chords, chordify, music renditions, songsterr, reverbnation, tabulature, bollywood chords, ultimate guitar, yousician, guitar lessons, acoustic guitar, electric guitar, guitar tuner, 911 tabs