Guitar Tabs for Kal Ho Na Ho

(/) Slide Up  (\) Slide Down  (h) Hammer On  (p) Pull Off  (b) Bend (r) Release (v) Vibrato

Tabs for Song : Kal ho na ho theme

har ghadi badal rahi.... (play 2 times)
E|-----------------------------------------------------------------
B|--------------------------------5--3--1--------------------------
G|--5-----4--5-----4--5-----4--5--------------4-----2--4-----2--4--
D|-----------------------------------------------------------------
A|-----------------------------------------------------------------
E|-----------------------------------------------------------------

Har pal yahan ji bhar jiyo....
E|--------------------------------------------------------------
B|--------------------------------------------------------------
G|-----------2--5--2--------------2--------------2--5--2--------
D|-----5-----------------3-----5-----5-----5-----------------3--
A|--------------------------------------------------------------
E|--------------------------------------------------------------

kal ho na ho....
E|--------------------
B|--------------------
G|--------3--2--------
D|-----3-----------5--
A|--------------------
E|--------------------

Now supports capo and sound effects for vibrato/pull-off/hammer/bends etc !!! Checkout help section
tabs and chords, guitar tabs, music contests, music covers, songsterr, reverbnation, renditions, tabulature, bollywood chords, ultimate guitar, yousician, guitar lessons, torrins, fender, gibson, acoustic guitar, electric guitar, youtube covers, gootar, guitar tuner, A-Z tabs, 911 tabs