Guitar Tabs for Kuch Na Kaho (sanam Puri Version)

(/) Slide Up  (\) Slide Down  (h) Hammer On  (p) Pull Off  (b) Bend (r) Release (v) Vibrato (x) Muted

Tabs for Song kuch na kaho (sanam puri version)
bpm-152
Intro:-
E|--------------------------
B|--------------------------
G|--3---5/8--7-----7-----8--
D|--------------------------
A|--------------------------
E|--------------------------
            4 times
            
Kuch na kaho,kuch bhi na kaho
E|-----------------------------------------------------------
B|-----------------------------------------------------------
G|-----------------------------------------------------------
D|--5--8--------5--5--8-----------5--8--------5--5--8--------
A|--------6--5-----------5--6-----------6--5-----------5--6--
E|-----------------------------------------------------------

kya kehna hai,kya sunna hai
mujhko pata hai,tumko pata hai..

E|-----------------------------------------------------------------------------------
B|-----------------------------------------------------------------------------------
G|-----------------------------------------------------------------5---5/7--5--------
D|--------5--6--6--------6--8--6--3--5--------8--8--10--8\7--------------------7--8--
A|--6--8-----------------------------------------------------------------------------
E|-----------------------------------------------------------------------------------


Samay ka ye pal..tham sa gaya hai
or is pal mai,koi mhi hai
E|-----------------------------------------------------------------------------------------
B|-----------------------------------------------------------------------------------------
G|---------5/7------------------5/7--5--7--7--8--------8--8--10--8\7-----5--7--5-----------
D|--8-----------8--10-10/12-------------------------------------------------------7--10\8--
A|-----------------------------------------------------------------------------------------
E|-----------------------------------------------------------------------------------------

bs ek mai hu,bs ek tum ho

E|--------------------------------------------
B|--------------------------------------------
G|--------------------------------------------
D|--5--8--5--------------3---3/5--3-----------
A|-----------6--5--------------------5---8\6--
E|--------------------------------------------

kuch na kaho ,kuch bhi na kaho(same)
solo:-
E|--------------------------------------
B|--------------------------------------
G|--10\8-----10\8-----10\8-----10-11-12-
D|--------------------------------------
A|--------------------------------------
E|--------------------------------------
         two times....

kitne gahre halke,shaam ke rang hai chhalke
E|--10--8/10-----------------------8/10-8---6/8--6--5---8\6--
B|-----------11-13----10-13\11-------------------------------
G|-----------------------------------------------------------
D|-----------------------------------------------------------
A|-----------------------------------------------------------
E|-----------------------------------------------------------

parwat se yu,utre badal,
jaise anchal dhalke
kitne gahre halke,shaam ke rang hai jhalke..
E|------------------------------------------------8/10-8--10-11----------------------------------------------------------
B|--8--9--11-9--8-----8---9/11-9--8------9/11-11-------------------------------------------------------------------------
G|--------------------------------------------------------------------7---5/7---------------------5/7--5---3/5--3--2--3--
D|-----------------------------------------------------------------------------8--10----7--8-----------------------------
A|-----------------------------------------------------------------------------------------------------------------------
E|-----------------------------------------------------------------------------------------------------------------------

parwat se yu,utre badal,jaise anchal dhalke
E|--------------------------------------------------------------
B|--------------------------------------------------------------
G|------------------------------------------------5/7--5--7--8--
D|--5--6--8--6--5-----5---6/8--6--5------6/8--8-----------------
A|--------------------------------------------------------------
E|--------------------------------------------------------------


aur is pal mai......(repeat)          
Use manual mode to free up cursor. Paste any tab in acousterr tab maker and we'll play it !!!
tabs and chords, guitar tabs, music transcription, music technology, deep learning, music information retrieval, transcribe into tabs & chords, chordify, music renditions, songsterr, reverbnation, tabulature, bollywood chords, ultimate guitar, yousician, guitar lessons, acoustic guitar, electric guitar, guitar tuner, 911 tabs