Guitar Tabs for Kaho Na Kaho

Intro
E|-----------------------------------------------------------------------------------
B|-----------------------------------------------------------------------------------
G|--------------------------------------3--------------------3-----------------------
D|--3--5--6--5-----3--5--6--5-----3--5-----6-----6--6--6--5-----6-----3--5--6--5-----
A|-----------------------------------------------------------------------------------
E|-----------------------------------------------------------------------------------

kaho na kaho...
E|--------------------------------------------------------------------------------
B|--4--4--3------3h4-----4--4--4------1/4--4--4--4---1/4--4--4--3-----------------
G|-----------5-----------------------------------------------------5---5/8--7-----
D|--------------------------------------------------------------------------------
A|--------------------------------------------------------------------------------
E|--------------------------------------------------------------------------------

o mere sanam...
E|--------------------------------
B|--4--4--3-----------------------
G|-----------5---5/8---8/10-7-----
D|--------------------------------
A|--------------------------------
E|--------------------------------

mohabbat k safar me...
E|--------------------------------------------------------
B|--------------------------------------------------------
G|--7--7--7---5/7--7--7--7---5/7--7--7---5\4---5/8--7-----
D|--------------------------------------------------------
A|--------------------------------------------------------
E|--------------------------------------------------------

wafa k sahilon ka...
E|--------------------------------------------------
B|--------------------------------------------------
G|--7--7--7---5/7--7--7---5\3--3--------------------
D|--------------------------------6---6/8--6--5-----
A|--------------------------------------------------
E|--------------------------------------------------

baadalon se unchi...
E|-----------------------------------------
B|-----------------------------------------
G|---3/5--5--5--5--5--5-----5--5---5/7--5--
D|-----------------------------------------
A|-----------------------------------------
E|-----------------------------------------


sabse alag pehchan
E|-----------------------------------------
B|-----------------------------------------
G|---3/5--5--5--5--5--5-----5--5---5/7--5--
D|-----------------------------------------
A|-----------------------------------------
E|-----------------------------------------

unse hai pyaar ki....
E|--------------------------------------------
B|--------------------------------------------
G|---5/7--7--7--7--7--7--7---7/-8\7---5\3-----
D|--------------------------------------------
A|--------------------------------------------
E|--------------------------------------------

aate jaate....
E|--------------------------------------------------
B|--------------------------------------------------
G|---5/7--7--7--7---7/-8\7--7--5--5--5--5--5--------
D|--------------------------------------------------
A|--------------------------------------------------
E|--------------------------------------------------

The Arabic part is same as Kaho na Kaho part...

tabs and chords, guitar tabs, music transcription, music technology, deep learning, music information retrieval, transcribe into tabs & chords, chordify, music renditions, songsterr, reverbnation, tabulature, bollywood chords, ultimate guitar, yousician, guitar lessons, acoustic guitar, electric guitar, guitar tuner, 911 tabs