Guitar Tabs for Kon tujhe yun

Tabs for Song : Kon tujhe yun pyaar karega

tu aata hai seene mein

E|--------------------------------------------
B|--10----11-10-8--------------------8--8-----
G|--------------------10-9--9--10-10----------
D|--------------------------------------------
A|--------------------------------------------
E|--------------------------------------------

jab jab saansein bharti hoon

E|--------------------------------------------
B|--8--8--10-8--------------------------------
G|--------------10----9--7--7--9--9--10-10----
D|--------------------------------------------
A|--------------------------------------------
E|--------------------------------------------

tere dil ki galiyon se

E|--------------------------------------------
B|--10----11-10-8--------------------8--8-----
G|--------------------10-9--9--10-10----------
D|--------------------------------------------
A|--------------------------------------------
E|--------------------------------------------

mein har roz guzarti hoon

E|--------------------------------------
B|--8--10-8-----------------------------
G|-----------10-10-9--10-7--9--7--7-----
D|--------------------------------------
A|--------------------------------------
E|--------------------------------------

hawaa ke jaise chalta hai tu

E|--------------------------------------------
B|--10----11-10-8--------------------8--8-----
G|--------------------10-9--9--10-10----------
D|--------------------------------------------
A|--------------------------------------------
E|--------------------------------------------

mein raet jaisi udati hoon

E|--------------------------------------------
B|--8--8--10-8--------------------------------
G|-----------------10-9--7--7--9--9--10-10----
D|--------------------------------------------
A|--------------------------------------------
E|--------------------------------------------

kon tujhe yun pyaar karega

E|--10----------------------------------------
B|-----10----10-8-----------------8--8--------
G|-----------------10----9--10-10-------9-----
D|--------------------------------------------
A|--------------------------------------------
E|--------------------------------------------

jaise main karti hoon

E|--------------------------------------------
B|--8--10-8-----------------------------------
G|-----------10----9--10-7--9--7-----7--------
D|--------------------------------------------
A|--------------------------------------------
E|--------------------------------------------



tabs and chords, guitar tabs, music transcription, music technology, deep learning, music information retrieval, transcribe into tabs & chords, chordify, music renditions, songsterr, reverbnation, tabulature, bollywood chords, ultimate guitar, yousician, guitar lessons, acoustic guitar, electric guitar, guitar tuner, 911 tabs