Guitar Tabs for Kmwis

(/) Slide Up  (\) Slide Down  (h) Hammer On  (p) Pull Off  (b) Bend (r) Release (v) Vibrato (x) Muted

Tabs for Song : 
BPM : 128

Riff One 
E|---------------------------------------------------------------------------------------------
B|---------------------------------------------------------------------------------------------
G|---------------------------------------------------------------------------------------------
D|-----------5-7/------------------------5-7/--------------------------------------------------
A|--0-h2-2-------0-h2-2--4-5-4/-2-0h2-2-------0 h2-2--5-4--------------------------------------
E|---------------------------------------------------------------------------------------------

Riff Two
E|----------------------------------------------------------------------------------------------
B|----------------------------------------------------------------------------------------------
G|----------------------------------------------------------------------------------------------
D|------------5-7------------------------5-7--------------------------------------------------------
A|---0-h2-2-------0-h2-2--4-5-4/-2-0-h2------2^3-3-3--3-333-333-------------------------------------------------------
E|----------------------------------------------------------------------------------------------

Don't leave me all alone...
E|------------------------------------------------------------------------------------------------------------------
B|------------------------------------------------------------------------------------------------------------------
G|---------7-9----------777------------9-11--------121212-11-9-------------------------------------------------14-16
D|--------------------------9-7--------------------------------12----------------------------------------12-14-------
A|--5--h7-7-----5-h7-7----------10--9-9-----7-h9-9-------------------10-10-10-10-10-10-10-10-12-12-12-14------------------------------------
E|--------------------------------------------------------------------------------------------------------------------

Tonight....
E|----------------------------
B|----------------------------
G|----------------------------
D|-----99----99----9----------
A|---------------------------- x 4
E|---7-----7---7--------------
tabs and chords, guitar tabs, music transcription, music technology, deep learning, music information retrieval, transcribe into tabs & chords, chordify, music renditions, songsterr, reverbnation, tabulature, bollywood chords, ultimate guitar, yousician, guitar lessons, acoustic guitar, electric guitar, guitar tuner, 911 tabs