Guitar Tabs for Kisi Se Tum Pyar Karo - Andaaz Tabs

(/) Slide Up  (\) Slide Down  (h) Hammer On  (p) Pull Off  (b) Bend (r) Release (v) Vibrato

Tabs for Song : Kisi Se Tum Pyar Karo

Intro
E|-----8--11----8--11-13-11-10----10-8--8--
B|--10-------10----------------11----------
G|-----------------------------------------
D|-----------------------------------------
A|-----------------------------------------
E|-----------------------------------------

Intro
E|--13-11-10-8--10----13-10-8-----10----10-10----10-8--
B|-----------------------------11----11-------11-------
G|-----------------------------------------------------
D|-----------------------------------------------------
A|-----------------------------------------------------
E|-----------------------------------------------------

Intro
E|--13-11-10-8--10-10----8--6--6--8--8--6--5-----5--5-----------
B|--------------------------------------------8--------8-----6--
G|--------------------------------------------------------8-----
D|--------------------------------------------------------------
A|--------------------------------------------------------------
E|--------------------------------------------------------------

Kisi Se Tum Pyar Karo
E|-----------------------5-----
B|--6--6--8--6-----6--6-----8--
G|--------------8--------------
D|-----------------------------
A|-----------------------------
E|-----------------------------

To Phir Izhaar Karo
E|-----------------------5-----
B|--6--6--8--6-----6--6-----8--
G|--------------8--------------
D|-----------------------------
A|-----------------------------
E|-----------------------------

Kahin Na Phir Der Ho Jaye, Kahin Na Phir Der Ho Jaye
E|-----------6--5-----------------------------6--5-----------------
B|--6--6--8--------8--6--6--8--6-----6--6--8--------8--6--6--6--6--
G|--------------------------------8--------------------------------
D|-----------------------------------------------------------------
A|-----------------------------------------------------------------
E|-----------------------------------------------------------------

Yehi To Dil Churane Ka Andaaz Hota Hai
E|---8/10-10-10-10-8--10-------11-11-8--------------------------------
B|-----------------------11-11----------10-11-10-8-----8--8--8--8--8--
G|--------------------------------------------------------------------
D|--------------------------------------------------------------------
A|--------------------------------------------------------------------
E|--------------------------------------------------------------------

Again Repeat Kisi Se Tum Pyar Karo...
tabs and chords, guitar tabs, music contests, music covers, songsterr, reverbnation, renditions, tabulature, bollywood chords, ultimate guitar, yousician, guitar lessons, torrins, fender, gibson, acoustic guitar, electric guitar, youtube covers, gootar, guitar tuner, A-Z tabs, 911 tabs