Guitar Tabs for Killer Solo

(/) Slide Up  (\) Slide Down  (h) Hammer On  (p) Pull Off  (b) Bend (r) Release (v) Vibrato (x) Muted

Tabs for Song : 

Song lyrics here
E|-----------------------6--8--------------------------------------
B|--------------------6--------9--11----8-----9-----------------9--
G|--7-----7--5-----7-----------------13----10----7--------5--9-----
D|-----6--------6-----------------------------------6--7-----------
A|-----------------------------------------------------------------
E|-----------------------------------------------------------------

E|--11----------7--------------11-9--7--------------11----------7--------------
B|-----9-----9-----9--11-8--9-----------11-9--8--------9-----9-----9--11-8--9--
G|--------8--------------------------------------9--------8--------------------
D|-----------------------------------------------------------------------------
A|-----------------------------------------------------------------------------
E|-----------------------------------------------------------------------------

E|--------------------------------------------6--7--5-----------
B|-----------------------7--8-----------8--5-----------5--9--7--
G|--8--9-----8--------8--------6--9--11-------------------------
D|--------11----9--11-------------------------------------------
A|--------------------------------------------------------------
E|--------------------------------------------------------------

E|--6--8--11----7--5-----0--------------------------
B|-----------9--------9-----6-----5-----------------
G|-----------------------------6-----7--5-----------
D|-----------------------------------------4--3-----
A|-----------------------------------------------3--
E|--------------------------------------------------

E|--------------------------------------------------------------------------------
B|--------------------------------------------------------------------------------
G|--------------------------------------------------------------------------------
D|-----------------------6-----------------------------------------6--------4--8--
A|-----7--------8-----------------8--------7-----7--------8-----------2--0--------
E|--0-----0--0-----0--0-----0--0-----0--0-----0-----0--0-----0--0-----------------

E|-----------------------9-----------------------9--------------------------------
B|--------------5-----7-----8--------10-------9-----------16----9--12----8--------
G|-----------4-----6-----------7--6-----7--8--------8--13----12-------11----5-----
D|-----6--7--------------------------------------------------------------------5--
A|--8-----------------------------------------------------------------------------
E|--------------------------------------------------------------------------------

E|--------------------------------------------------------------------------------------------------
B|--------------------------------------------------------------------------------------------------
G|--------0--0--------0--0--------0--0---------------1\0-----0---4\0-----0---1\0-----0--------0--0--
D|---3/5---------5/6---------6/9---------6\0---5/0--------3-----------3-----------3------1/3--------
A|--------------------------------------------------------------------------------------------------
E|--------------------------------------------------------------------------------------------------

Song lyrics here
E|--
B|--
G|--
D|--
A|--
E|--

Paste any tab in acousterr's tab maker and we'll play it !!!
Now supports capo and sound effects for vibrato/pull-off/hammer/bends/mutes etc !!! Checkout help section
tabs and chords, guitar tabs, music transcription, music technology, deep learning, music information retrieval, transcribe into tabs & chords, chordify, music renditions, songsterr, reverbnation, tabulature, bollywood chords, ultimate guitar, yousician, guitar lessons, acoustic guitar, electric guitar, guitar tuner, 911 tabs