Guitar Tabs for Pysco Killer

---INTRO---

 e||-------------------|---------------------------|
 B||-------------------|---------------------------|
 G||-------------------|---------------------------|
 D||-------------------|---------------------------|
 A||-------------------|---------------------------|
 E||--5x--5x--5x--5x---|--5x--5x--5-0-3------------|

 repeat 6x

  add on third pass
       G/A                 
 e||-------------------|---------------------------|
 B||---12--------------|---------------------------|
 G||---12--------------|---------------------------|
 D||---12--------------|---------------------------|
 A||---12--------------|---------------------------|
 E||-------------------|---------------------------|

 add on fourth pass

       G6/A                  
 e||---12--------------|---------------------------|
 B||---12--------------|---------------------------|
 G||---12--------------|---------------------------|
 D||---12--------------|---------------------------|
 A||-------------------|---------------------------|
 E||-------------------|---------------------------|

 add on fifth and sixth pass
      A                               A7
 e||--5-5-5-5-5-5-5-5---|--5-5-5-5-5--8-8-8-8-8-8-|
 B||--5-5-5-5-5-5-5-5---|--5-5-5-5-5--7-7-7-7-7-7-|
 G||--6-6-6-6-6-6-6-6---|--6-6-6-6-6--8-8-8-8-8-8-|
 D||--7-7-7-7-7-7-7-7---|--7-7-7-7-7--------------|
 A||--------------------|-------------------------|
 E||--------------------|-------------------------|

---VERSE 1---

     A7                                  G
 e||------0-------0----|-------0------------------|
 B||---2------------2--|----------2------0--------|
 G||--------0--0-------|----0------------0--------| 
 D||-------------------|-------------2------------|
 A||-0-----------------|--0-----------------------|  x each line
 E||-------------------|--------------------------|


 A7                                     G
  I can't seem to face up to the facts
 A7                                        G
  I'm tense and nervous and I can't relax
 A7                                      G
  I can't sleep cause my bed's on fire
 A7                                     G
  Don't touch me I'm a real live wire
 
 
---CHORUS---

 F                G
   Psycho killer, qu'est-ce que c'est
 Am
   Fa fa fa fa fa fa fa fa fa fa better
 F                 G                 C
   Run run run run run run run run a-way  Ah  oohhh
 F                G
   Psycho killer, qu'est-ce que c'est
 Am
   Fa fa fa fa fa fa fa fa fa fa better
 F                 G                 C
   Run run run run run run run run a-way
 F                   G
 Oh oh oh oooooooh   Ay ay ay ay ay ay ay  ooooh




tabs and chords, guitar tabs, music transcription, music technology, deep learning, music information retrieval, transcribe into tabs & chords, chordify, music renditions, songsterr, reverbnation, tabulature, bollywood chords, ultimate guitar, yousician, guitar lessons, acoustic guitar, electric guitar, guitar tuner, 911 tabs