Guitar Tabs for Khuda Jaane Main

(/) Slide Up  (\) Slide Down  (h) Hammer On  (p) Pull Off  (b) Bend (r) Release (v) Vibrato (x) Muted

Tabs for Song : CAPO 6TH FRET

Song lyrics here
E|--------------------------------------------------
B|--------------------------------------------------
G|-----------------------0--------------------------
D|--2-----2-----------0--------4-----4--------0--2--
A|-----2-----2--0--2--------------2-----2--0--------
E|--------------------------------------------------

E|-----------------------------
B|-----0-----------------------
G|--2-----0--2-----0-----------
D|--------------4------0h2-----
A|-----------------------------
E|-----------------------------

E|-----------------------------------------------------------------------------------------------
B|-----------------------------------------------------------------------------------------------
G|-----------------------------------------------------------------------------------------------
D|-----0-----0-----0---0h2--0--------0-----0-----0---0h2--0-----------0-----0--------------------
A|--2-----2-----2-----------------0-----0-----0--------------4-----4-----4-----4--2--0--4--2--2--
E|-----------------------------------------------------------------------------------------------

E|--------------------------------------------------------------------
B|--------0--3--2-----------0--------------0--3--2-----------------0--
G|-----0-----------2--2--0-----0--------0-----------2-----2--2--0-----
D|--2--------------------------------2--------------------------------
A|--------------------------------------------------------------------
E|--------------------------------------------------------------------

E|--------------------------------------------------------------------
B|--------0--3--2-----------------------------------------------------
G|-----0-----------2-----------0-----0-----0-----0--------------------
D|--2-----------------4--2--4-----------4-----4-----4--2--0--4--2--2--
A|--------------------------------------------------------------------
E|--------------------------------------------------------------------

E|-----------------------------------------------------
B|-----------------------------------------------------
G|-----0-----0-----0---2h4-----4--2--0--2--0--2--4--2--
D|--2-----2-----2--------------------------------------
A|-----------------------------------------------------
E|-----------------------------------------------------

E|-----------------------------
B|-----------------------------
G|--0-----0-----0--------------
D|-----2-----2-----0---2/5--5--
A|-----------------------------
E|-----------------------------

E|-----------------------------------------------------
B|-----------------------------------------------------
G|-----0-----0-----0---2h4--5--2--0--2--0---0h2--4--2--
D|--2-----2-----2--------------------------------------
A|-----------------------------------------------------
E|-----------------------------------------------------

E|-----------------------------------------------
B|-----------------------------------------------
G|--0-----0-----0--------------------------------
D|-----2-----2-----0---2/5--5v-------------------
A|---------------------------------------0h2--0--
E|--------------------------------0--3-----------

E|---
B|--
G|--
D|--
A|--
E|--


Song lyrics here
E|--
B|--
G|--
D|--
A|--
E|--

Paste any tab in acousterr's tab maker and we'll play it !!!
Now supports capo and sound effects for vibrato/pull-off/hammer/bends/mutes etc !!! Checkout help section
tabs and chords, guitar tabs, music transcription, music technology, deep learning, music information retrieval, transcribe into tabs & chords, chordify, music renditions, songsterr, reverbnation, tabulature, bollywood chords, ultimate guitar, yousician, guitar lessons, acoustic guitar, electric guitar, guitar tuner, 911 tabs