Guitar Tabs for Khuda Jaane - Bachna Ae Haseeno Tabs

(/) Slide Up  (\) Slide Down  (h) Hammer On  (p) Pull Off  (b) Bend (r) Release (v) Vibrato

Tabs for Song : Khuda Jaane 

Intro
E|--------------------------------------
B|--------8-----------------8-----------
G|--2--5-----5--4-----2--5-----5--4-----
D|--------------------------------------
A|--------------------------------------
E|--------------------------------------


Sajde mein yun hi jhukta hoon
E|-----------------------------
B|-----------------------1-----
G|--2-----2-----------0--------
D|-----2-----2--0--2-----------
A|-----------------------------
E|-----------------------------

Tum pe hi aa ke rukta hoon
E|-----------------------------
B|-----------------------1-----
G|--4-----4-----------0--------
D|-----2-----2--0--2-----------
A|-----------------------------
E|-----------------------------

Kya yeh sab ko hota hai
E|-----0--------------------
B|--3-----1--3--0--1--------
G|--------------------2-----
D|--------------------------
A|--------------------------
E|--------------------------

Hum ko kya lena hai sab se
E|-----------------------------
B|-----------------------------
G|-----0-----0-----0--2--0-----
D|--2-----2-----2--------------
A|-----------------------------
E|-----------------------------

Tum se hi sab batein ab se
E|-----------------------------
B|-----------------------------
G|-----0-----0-----0--2--0-----
D|--0-----0-----0--------------
A|-----------------------------
E|-----------------------------

Ban gaye ho tum meri dua
E|--------------------------------------
B|--------------------------------------
G|--------0-----0-----------------------
D|--4--4-----4-----4--2--0--4--2--2-----
A|--------------------------------------
E|--------------------------------------

Khuda Jaane ke 
E|--------0--3--2--------
B|-----1-----------3-----
G|--2--------------------
D|-----------------------
A|-----------------------
E|-----------------------

mein fida hun
E|--------0--------
B|--3--1-----1-----
G|-----------------
D|-----------------
A|-----------------
E|-----------------

Khuda Jaane mein 
E|--------0--3--2--------
B|-----1-----------3-----
G|--2--------------------
D|-----------------------
A|-----------------------
E|-----------------------

mit gaya
E|-----------0-----
B|--3--3--1--------
G|-----------------
D|-----------------
A|-----------------
E|-----------------

Khuda jaane yeh kyun hua hai
E|--------0--3--2-----------------------
B|-----1-----------3-----1--0--0--1-----
G|--2-----------------0-----------------
D|--------------------------------------
A|--------------------------------------
E|--------------------------------------

Ke ban gaye ho tum mere khuda
E|--------------------------------------
B|--1--0--1--0--1--0--------0-----------
G|--------------------2--0-----2--2-----
D|--------------------------------------
A|--------------------------------------
E|--------------------------------------




Add more lines by placing cursor below and adding notes
tabs and chords, guitar tabs, music contests, music covers, songsterr, reverbnation, renditions, tabulature, bollywood chords, ultimate guitar, yousician, guitar lessons, torrins, fender, gibson, acoustic guitar, electric guitar, youtube covers, gootar, guitar tuner, A-Z tabs, 911 tabs