Guitar Tabs for Khairiyat

Khairiyat puchho
Kabhi to kaifiyat puchho
E|-----------------------------------------------------------------------------
B|--------------------------------4---3h-4p3-----------------------------------
G|---3/5-----3--5------5/8--7-----------------5--3--5-----3--5------5/8--7-----
D|-----------------------------------------------------------------------------
A|-----------------------------------------------------------------------------
E|-----------------------------------------------------------------------------

Tumhaare bin deewane ka
Kya haal hai
E|--------------------------------------------------------------------
B|-----4---3h-4p3-----------------------------------------------------
G|-----------------5--3--3-----3--3------5/8--7-----------------------
D|---------------------------------------------------6/8--6--8--5-----
A|--------------------------------------------------------------------
E|--------------------------------------------------------------------


Dil mera dekho
Na meri haisiyat puchho
E|-----------------------------------------------------------------------------
B|--------------------------------4---3h-4p3-----------------------------------
G|---3/5-----3--5------5/8--7-----------------5--3--5-----3--5------5/8--7-----
D|-----------------------------------------------------------------------------
A|-----------------------------------------------------------------------------
E|-----------------------------------------------------------------------------

Tere bin ek din jaise
Sau saal hai
E|--------------------------------------------------------------------
B|-----4---3h-4p3-----------------------------------------------------
G|-----------------5--3--3-----3--3------5/8--7-----------------------
D|---------------------------------------------------6/8--6--8--5-----
A|--------------------------------------------------------------------
E|--------------------------------------------------------------------

Anjaam hai tay mera
E|--------------------------------------------
B|-----------4---4/6------4h-6p4---6/8--6-----
G|---3/5--7-----------------------------------
D|--------------------------------------------
A|--------------------------------------------
E|--------------------------------------------

Hona tumhe hai mera
E|--------------------------------------------
B|--------------------------------------------
G|---1/3--5--7---7/8------7h-8p7---8/10-8-----
D|--------------------------------------------
A|--------------------------------------------
E|--------------------------------------------

Jitni bhi ho dooriya filhaal hai
E|--------------------------------------------------------------------------------
B|--------------------------------------------------------------------------------
G|--1-----3--5---5/7------5h-7p5---7/8--7------3/5--5--5--4------4h-5p4-----5-----
D|--------------------------------------------------------------------------------
A|--------------------------------------------------------------------------------
E|--------------------------------------------------------------------------------

Ye dooriya filhaal hai
E|--------------------------------------------------
B|--------------------------------------------------
G|---1/3------1h-3p1---3/5--3-----------------------
D|---------------------------------5/6--6--8--5-----
A|--------------------------------------------------
E|--------------------------------------------------

Tumhaari tasveer ke sahaare
E|-----------------------------------------------------
B|--3--4--3-----3--4-----6---3h-4p3-----3--------------
G|-----------5-----------------------------4-----5-----
D|-----------------------------------------------------
A|-----------------------------------------------------
E|-----------------------------------------------------

Mausam kai guzaare
E|-----------------------------------------------
B|-----3-----4-----6---3h-4p3-----3--------------
G|--5--------------------------------4-----5-----
D|-----------------------------------------------
A|-----------------------------------------------
E|-----------------------------------------------

Mausami na samjho
Par ishq ko humaare
E|--------------------------------------------------------------------------------
B|--------------------------------------------------------------------------------
G|---5/8--5--------8--------------8-----7--5--7-----5---5h-7p5-----5--4-----5-----
D|-----------6------------3/6-----------------------------------------------------
A|--------------------------------------------------------------------------------
E|--------------------------------------------------------------------------------
tabs and chords, guitar tabs, music transcription, music technology, deep learning, music information retrieval, transcribe into tabs & chords, chordify, music renditions, songsterr, reverbnation, tabulature, bollywood chords, ultimate guitar, yousician, guitar lessons, acoustic guitar, electric guitar, guitar tuner, 911 tabs