Kernkraft 400 - Guitar Tabs

(/) Slide Up  (\) Slide Down  (h) Hammer On  (p) Pull Off  (b) Bend (r) Release (v) Vibrato (x) Muted

Tabs for Song : 
BPM : 200





Song lyrics here 



F|-----------------------------------------------------------------
C|-----------------------------------------------------------------
G|-----------------------------------------------------------------
D|-----------3-----------------3--4--3-----------------3-----------
A|-----4--6--------------4--6-----------4--6--6--6--4--------------
F|--6-----------6--6--6-----------------------------------6--6--6--




F|--
C|--
G|--
D|--
A|--
F|--

F|--
C|--
G|--
D|--
A|--
F|--

F|--
C|--
G|--
D|--
A|--
F|--

F|--
C|--
G|--
D|--
A|--
F|--

F|--
C|--
G|--
D|--
A|--
F|--

F|--
C|--
G|--
D|--
A|--
F|--

F|--
C|--
G|--
D|--
A|--
F|--

F|--
C|--
G|--
D|--
A|--
F|--

F|--1111
C|--
G|--
D|--
A|--
F|--

F|-1
C|--
G|--
D|--
A|--
F|--

F|--1-----------------------------------------------------------------------------------
C|-----------------------3--------------------------------------------------------------
G|-----------------------2-----------------------2-----------------------6--------------
D|-----------------------------------------------4-----------------------7--------------
A|-----------------------------------2-----------0-----------------------0--------------
F|-----------2-----------3-----------------------------------3--------------------------

E|--------------------------2-----------------------------------------------------------------
B|--0-----------------------3-----------------------2-----------------------5-----------------
G|--0-----------------------2-----------------------2-----------------------6-----------------
D|--0-----------------------------------------------4-----------------------7-----------------
A|--------------------------------------2-----------0-----------------------0-----------------
E|--0-----------2-----------3-----------------------------------3-----------------------------



E|--------------5-----7-----2--------------------0--------------------2--5-----------------
B|--0-----------------------3-----------------3-----2-----------------------5--------------
G|--0-----------------------2-----------------------2-----------------------6--------------
D|--0-----------------------------------------------4-----------------------7--------------
A|--------------------------------------2-----------0-----------------------0--------------
E|--0-----------3-----------3-----------------------------------3--------------------------

E|--------------------------2--------------------0--------------------2--5-----------------
B|--0-----------12h---------3-----------------3-----2-----------------------5--------------
G|--0-----7----h------------2-----------------------2-----------------------6--------------
D|--0------------------7h---------------------------4-----------------------7--------------
A|--------------------------------------2-----------0-----------------------0--------------
E|--0-----------------------3-----------------------------------3--------------------------
5
E|--------------5-----7-----10-------------1---2h---9-----------10----9-----5-----------
B|--0-----------------------7--------7----h---------10----------------------5-----------
G|--0-----------------------7-----------------------------------------------6-----------
D|--0-----------------------7-----------------------------------------------7-----------
A|--------------------------------------------------------------------------------------
E|--0-----------3-----------------------------------10----------------------------------

E|--------------7-----5-----2--------------------0--------------------5--2--------------
B|--0-----------------------3-----------------3-----2-----------------------5-----------
G|--0-----------------------2-----------------------2-----------------------6-----------
D|--0-----------------------------------------------4-----------------------7-----------
A|--------------------------------------2-----------0-----------------------0-----------
E|--0-----------3-----------3-----------------------------------3-----------------------

E|--------------5-----7-----10----------------------------9-----------------2--5-----------
B|--0-----------------------7-----------------------------10-------7----h---------5--------
G|--0-----------------------7--------------7-----9--------------------------------6--------
D|--0-----------------------7-----------------------------------------------------7--------
A|--------------------------------------------------------------------------------0--------
E|--0-----------3-----------------7-----------------------10-------------------------------

E|--2--------7-----5--------0-----0--------------------0-----------------
B|--2-----------------------0--------3-----2--------3--------0-----------
G|--2-----------------------1--------------2-----------------0-----------
D|-----------------------------------------2-----------------0-----------
A|-----------------------------------------0-----------------------------
E|--2--------------------------------------------------------3-----------

E|--2--------7-----5--------0-----12---h------------9-----------10-1--4--12----7--
B|--2-----------------------0--------------------------10----------------------0--
G|--2-----------------------1---------------7h---------------------------------0--
D|-----------------------------------------------------------------------------0--
A|--------------------------------------------------------------------------------
E|--2--------------------------------------------------10-------------------------




Use manual mode to free up cursor. Paste any tab in acousterr tab maker and we'll play it !!!



About Kernkraft 400 : "Kernkraft 400" (English: Nuclear Energy 400) is a song performed by German techno artist Zombie Nation . It peaked at 22 in Germany in February 2000 . It also reached number 10 in Flemish Belgium and number five The song is commonly used as a sports chant at sport stadiums . The first Zombie Nation record contained the song "Kernkraft 400", which is a remix of the soundtrack of the 1984 Commodore 64 game Lazy Jones by David Whittaker . The song is sometimes mislabeled as "Zombie Nation" The artist's name It was released in 1999. It was released as part of album Leichenschmaus. The genre is electronic. The track was release in 1999. It is related to the album(s) - Leichenschmaus.

About Leichenschmaus : Florian Senfter (a.k. Zombie Nation and Splank!) worked together on his debut album with Emanuel Günther . It was released in the beginning of 1999 on DJ Hell's label International DeeJay Gigolo Records The front cover is a flipped image of the baby that is used on Nirvana's 1991 album Never First Zombie Nation record contained the song "Kernkraft 400", German for "Nuclear Power 400" The song samples a track from the 1984 Commodore 64 game Lazy Jones by David Whittaker called "Star Dust" It had a contribution from notable artists like Florian Senfter,Emanuel Günther. It had an affiliation to bands - Leichenschmaus.

tabs and chords, guitar tabs, music transcription, music technology, deep learning, music information retrieval, transcribe into tabs & chords, chordify, music renditions, songsterr, reverbnation, tabulature, bollywood chords, ultimate guitar, yousician, guitar lessons, acoustic guitar, electric guitar, guitar tuner, 911 tabs