Guitar Tabs for Kaun Tujhe - Single String Tab

Kaun Tujhe Single String Tabs

Tu aata hai seene mein
E|-----------------------------------
B|--9--10-9--7--5--4--4--5--5--7--7--
G|-----------------------------------
D|-----------------------------------
A|-----------------------------------
E|-----------------------------------

Jab jab saansein bharti hoon
E|--------------------------------
B|--7--9--7--5--4--2--4--4--5--5--
G|--------------------------------
D|--------------------------------
A|--------------------------------
E|--------------------------------



E|--------------------------------------
B|--14-9--9--9--7--5--4--5--5--7--7-----
G|--------------------------------------
D|--------------------------------------
A|--------------------------------------
E|--------------------------------------


E|-----------------------------
B|--7--9--5--4--5--4--2--2-----
G|-----------------------------
D|-----------------------------
A|-----------------------------
E|-----------------------------
tabs and chords, guitar tabs, music contests, music covers, songsterr, reverbnation, renditions, tabulature, bollywood chords, ultimate guitar, yousician, guitar lessons, torrins, fender, gibson, acoustic guitar, electric guitar, youtube covers, gootar, guitar tuner, A-Z tabs, 911 tabs