Guitar Tabs for Kalank Title Track Musical G

(/) Slide Up  (\) Slide Down  (h) Hammer On  (p) Pull Off  (b) Bend (r) Release (v) Vibrato (x) Muted

Tabs for Song : Kalank Title Track Guitar Tabs Musical G
BPM : 200

Song lyrics here 
E|-----------------------------------------------------------------------
B|-----------------------------------------------------------------------
G|------5/3--5--3-----3--------3-----3---------5/6-----5--3--------------
D|--3--------------------5-----------------3-----------------------------
A|-----------------------------------------------------------------------
E|-----------------------------------------------------------------------

E|-----------------------------------------------------------------------
B|-----------------------------------------------------------------------
G|------5/3--5--3-----3--------3-----3---------5/6-----5--3--------------
D|--3--------------------5-----------------3-----------------------------
A|-----------------------------------------------------------------------
E|-----------------------------------------------------------------------

Hawaao Mein Bahein ge Ghataao Mein Rahein ge 
E|-----------------------------------------------------------------------
B|--3--4--6--4--3---3/6--------------------------------------------------
G|--------------------------0--------3--5--6--5--3---3/6-----------------
D|-----------------------------------------------------------4-----------
A|-----------------------------------------------------------------------
E|-----------------------------------------------------------------------
Tu Barkha Meri Main Tera Paadal Piya
E|-----------------------------------------------------------------------
B|-----------------3-----------------------------------------------------
G|------------------------5/3--3--6------5h6---5\3--3--3-----------------
D|--4---6/8--6--4--------------------------------------------------------
A|-----------------------------------------------------------------------
E|-----------------------------------------------------------------------
Jo Tere Na Huye To..Kisi Ke Na Rahein ge
E|-----------------------------------------------------------------------
B|--3--4--6--4--3---3/6--------------------------------------------------
G|-----------------------0--------3--5--6--5--3---3/6--------------------
D|-----------------------------------------------------4-----------------
A|-----------------------------------------------------------------------
E|-----------------------------------------------------------------------
deewaani tu meri main tera paagal piya
E|-----------------------------------------------------------------------
B|-----------------3-----------------------------------------------------
G|------------------------5\3--3--6---5h6---5\3-----3--3-----3-----------
D|--4--6--8--6--4--------------------------------------------------------
A|-----------------------------------------------------------------------
E|-----------------------------------------------------------------------
Hazaaro Mein Kisi Ko Daqdeer Aesi
E|--------------------------------------------------------------------------
B|--3--4--6--4--3--6------6/8--------6--3---------------3h4-----------------
G|-----------------------------------------5--3--6--------------------------
D|--------------------------------------------------------------------------
A|--------------------------------------------------------------------------
E|--------------------------------------------------------------------------
Mili Hai Ek Raanjha, Aur Heer Jaysi
E|--------------------------------------------------------------------------
B|--3--4--6--4--3--6------6/8--------6--3---------------3h4-----------------
G|-----------------------------------------5--3--6--------------------------
D|--------------------------------------------------------------------------
A|--------------------------------------------------------------------------
E|--------------------------------------------------------------------------
Na Jaane Ye Zamaana Q Chaahe re Mita Na
E|--------------------------------------------------------------------------
B|--3--4--6--4--3---3/6-----------------------------------------------------
G|--------------------------0--------3--5--6--5--3---3/6--------------------
D|-----------------------------------------------------------4--------------
A|--------------------------------------------------------------------------
E|--------------------------------------------------------------------------
Kalank Nahi Ishq Hai Kaajal Piya
E|--------------------------------------------------------------------------
B|-----------------3--------------------------------------------------------
G|------------------------5\3--3--6------5h6---5\3--3--3--------------------
D|--4---6/8--6--4-----------------------------------------------------------
A|--------------------------------------------------------------------------
E|--------------------------------------------------------------------------
Kalank Nahi Ishq Hai Kaajal Piya
E|--------------------------------------------------------------------------
B|-----------------3--------------------------------------------------------
G|------------------------5\3--3--6------5h6---5\3--3--3--------------------
D|--4---6/8--6--4-----------------------------------------------------------
A|--------------------------------------------------------------------------
E|--------------------------------------------------------------------------
Piya..Piyaa..Piya re...Piya re..
E|-----------------------------------------------------------------------------------------
B|-----------------------------------------------------------------------------------------
G|--5--5--------5---5/6---3/5--------3---5/7--7-----8-----7---5/-7h8---3/5--5--------------
D|-----------------------------------------------------------------------------------------
A|-----------------------------------------------------------------------------------------
E|-----------------------------------------------------------------------------------------
Piya Re..Piya re Piya Re...
E|-----------------------------------------------------------------------------------------------
B|-----------------------------------------------------------------------------------------------
G|--3---5/-7/8---8\7---5/7--8--8--7--7--5--5--8-----8--8--7-----8--8--7-----8--8--7--------------
D|-----------------------------------------------------------------------------------------------
A|-----------------------------------------------------------------------------------------------
E|-----------------------------------------------------------------------------------------------

Use manual mode to free up cursor. Paste any tab in acousterr tab maker and we'll play it !!!
tabs and chords, guitar tabs, music transcription, music technology, deep learning, music information retrieval, transcribe into tabs & chords, chordify, music renditions, songsterr, reverbnation, tabulature, bollywood chords, ultimate guitar, yousician, guitar lessons, acoustic guitar, electric guitar, guitar tuner, 911 tabs