Guitar Tabs for Kalank Title Track

intro
E|--------------------------------------------------------
B|--------------------------------------------------------
G|---5/7--5--3-----3-----------------3--3-----5--6--5--3--
D|--------------------3---3/5-----------------------------
A|--------------------------------------------------------
E|--------------------------------------------------------

Hawaaon mein bahenge
Ghataon mein rahenge
E|-----------------------------------------------------------------
B|--------4--6--4------4/6-----------------1--2--1-----------------
G|---5/7-----------7------------------1/3-----------3---3/6--------
D|-----------------------------5--------------------------------4--
A|-----------------------------------------------------------------
E|-----------------------------------------------------------------

Tu barkha meri
Main tera baadal piya
E|--------------------------------------------------------------
B|--------------------------------------------------------------
G|--------3---------5/7------3/5--3---5/6---3/5--3-----3--3-----
D|--4--6-----6--4-----------------------------------------------
A|--------------------------------------------------------------
E|--------------------------------------------------------------

Jo tere na huve toh
Kisi ke na rahenge
E|-----------------------------------------------------------------
B|--------4--6--4------4/6-----------------1--2--1-----------------
G|---5/7-----------7------------------1/3-----------3---3/6--------
D|-----------------------------5--------------------------------4--
A|-----------------------------------------------------------------
E|-----------------------------------------------------------------

Deewani tu meri
Main tera paagal piya
E|--------------------------------------------------------------
B|--------------------------------------------------------------
G|--------3---------5/7------3/5--3---5/6---3/5--3-----3--3-----
D|--4--6-----6--4-----------------------------------------------
A|--------------------------------------------------------------
E|--------------------------------------------------------------

Hazaaron mein kisi ko taqdeer aisi
E|--10-11-13-11-10-11/13----13/15----13-11----10-------------------------
B|--------------------------------------------------13----14----14/15----
G|-----------------------------------------------------------------------
D|-----------------------------------------------------------------------
A|-----------------------------------------------------------------------
E|-----------------------------------------------------------------------

Mili hai ik Ranjha aur Heer jaisi
E|--10-11-13-11-10-11/13----13/15----13-11----10-------------------------
B|--------------------------------------------------13----14----14/15----
G|-----------------------------------------------------------------------
D|-----------------------------------------------------------------------
A|-----------------------------------------------------------------------
E|-----------------------------------------------------------------------

Na jaane ye zamaana
Kyun chaahe re mitaana
E|--------------------------------------------------------------------------
B|--------4--6--4------4/6--------------1--2--1------1h2---4/6---4h-6p4--2--
G|---5/7-----------7-----------------3-----------3--------------------------
D|-----------------------------5--------------------------------------------
A|--------------------------------------------------------------------------
E|--------------------------------------------------------------------------

Kalank nahi ishq hai kaajal piya
E|--------------------------------------------------------------
B|--------------------------------------------------------------
G|--------3---------5/7------3/5--3---5/6---3/5--3-----3--3-----
D|--4--6-----6--4-----------------------------------------------
A|--------------------------------------------------------------
E|--------------------------------------------------------------

Kalank nahi ishq hai kaajal piya
E|-----------------------------------------------------------
B|-----------4--6--3-----------------------------------------
G|--------3---------------3/5--3---5/6---3/5--3-----3--3-----
D|--4--6-----------------------------------------------------
A|-----------------------------------------------------------
E|-----------------------------------------------------------

Main tera, main tera,
E|--------------------------------------------------------
B|--11----11h13-13----11----11h13-13----11----11h13-13----
G|--------------------------------------------------------
D|--------------------------------------------------------
A|--------------------------------------------------------
E|--------------------------------------------------------

 main tera, main tera
E|-----------------------------------------------
B|--11-11-13/15-11-11-13/15-11-11-13/15-11-11----
G|-----------------------------------------------
D|-----------------------------------------------
A|-----------------------------------------------
E|-----------------------------------------------

Musaafir main bhatka tu mera basera
E|--11-11-11----10-10h11p10-8--6--6---8/10----10-10-10/13----11-10h11p10-8-----8--8--10/11--8h10p8--------
B|--------------------------------------------------------------------------------------------------11----
G|--------------------------------------------------------------------------------------------------------
D|--------------------------------------------------------------------------------------------------------
A|--------------------------------------------------------------------------------------------------------
E|--------------------------------------------------------------------------------------------------------
tabs and chords, guitar tabs, music transcription, music technology, deep learning, music information retrieval, transcribe into tabs & chords, chordify, music renditions, songsterr, reverbnation, tabulature, bollywood chords, ultimate guitar, yousician, guitar lessons, acoustic guitar, electric guitar, guitar tuner, 911 tabs