Guitar Tabs for Kal Ho Na Ho (original Scale)

(/) Slide Up  (\) Slide Down  (h) Hammer On  (p) Pull Off  (b) Bend (r) Release (v) Vibrato (x) Muted

Tabs for Song : Kal Ho Na Ho
Scale : C major
Chords : ( C major, A minor, F major, G major A# major )

BPM : 200

    Har   ghadi    badal    ra he e  haii  roo   p zin    da gi
E|--------------------------------------------------------------------
B|--------------------------------5--3--------------------------------
G|--5-----4--5-----4--5-----4--5--------5--4-----2--4-----2--4--------
D|--------------------------------------------------------------------
A|--------------------------------------------------------------------
E|--------------------------------------------------------------------

       Chaa  v hai    kabhi    ka bhii  haii  dhoo  p  zin   da gi
E|--------------------------------------------------------------------
B|-----------------------------------5--3-----------------------------
G|-----5-----4--5-----4--5-----4--5--------5--4-----2--4-----2--4-----
D|--------------------------------------------------------------------
A|--------------------------------------------------------------------
E|--------------------------------------------------------------------

       Har  pal    ya ha                Jee  bhar   ji yo
E|--------------------------------------------------------------------
B|--------------------------------------------------------------------
G|-----------2-----5--2-----------------------------2-----------------
D|-----5--------------------------------3-----5--------5--------------
A|--------------------------------------------------------------------
E|--------------------------------------------------------------------
    Jo   hai    sa ma       aa aa       kal   ho    na    ho
E|-----------------------------------------------------------
B|-----------------------------------------------------------
G|--------2-----5--2--------------------------3-----2--------
D|--5-----------------------5--3--------3-----------------5--
A|-----------------------------------------------------------
E|-----------------------------------------------------------

S   ong lyrics here 
E|--
B|--
G|--
D|--
A|--
E|--

Use manual mode to free up cursor. Paste any tab in acousterr tab maker and we'll play it !!!
tabs and chords, guitar tabs, music transcription, music technology, deep learning, music information retrieval, transcribe into tabs & chords, chordify, music renditions, songsterr, reverbnation, tabulature, bollywood chords, ultimate guitar, yousician, guitar lessons, acoustic guitar, electric guitar, guitar tuner, 911 tabs