Guitar Tabs for Kahin Door Jab

kahin door jab din dhal jaye
E|-----------------------------------------------------
B|---7/9--9--9--9-----7--5--7---5h-7p5-----------------
G|--------------------------------------6---6/9--4-----
D|-----------------------------------------------------
A|-----------------------------------------------------
E|-----------------------------------------------------

saanjh ki dulhan badan churaaye chupake se aaye
E|-----------------------------------------------------------------------------
B|---------------------------------------------------------7/9--7--5-----5-----
G|---4/6--6------4/6--6-----4--6--8--6---6/8--8-----4--6-----------------------
D|-----------7-----------------------------------------------------------------
A|-----------------------------------------------------------------------------
E|-----------------------------------------------------------------------------


mere Kayaalon ke aangan mein
E|---4/6--7-----6---7p6---4h-6p4-----------4--5--4--5--4---4h-5p4--------
B|--------------------------------7-----7--------------------------5-----
G|-----------------------------------------------------------------------
D|-----------------------------------------------------------------------
A|-----------------------------------------------------------------------
E|-----------------------------------------------------------------------

koi sapanon ke deep jalaaye deep jalaaye
E|-----2--4--2---4/-5\4--2---2h-4p2--------------------------------------------------------
B|--5--------------------------------4---4/7------7/12-11-11-11\7------7/12-12-10-9-----9--
G|-----------------------------------------------------------------------------------------
D|-----------------------------------------------------------------------------------------
A|-----------------------------------------------------------------------------------------
E|-----------------------------------------------------------------------------------------


kabhi yunhin jab huyi bojhal saansen
E|------5/7--7--9--9------5/7--9--9-----7--9---9/12-11-9--9-----
B|--------------------------------------------------------------
G|--------------------------------------------------------------
D|--------------------------------------------------------------
A|--------------------------------------------------------------
E|--------------------------------------------------------------

bhar aayi baithe baithe jab yuhin aankhen
E|--5--5--5-----5--5--5--9-----7--9---9/11-9--7-----7--
B|-----------7-----------------------------------------
G|-----------------------------------------------------
D|-----------------------------------------------------
A|-----------------------------------------------------
E|-----------------------------------------------------

tabs and chords, guitar tabs, music transcription, music technology, deep learning, music information retrieval, transcribe into tabs & chords, chordify, music renditions, songsterr, reverbnation, tabulature, bollywood chords, ultimate guitar, yousician, guitar lessons, acoustic guitar, electric guitar, guitar tuner, 911 tabs